  0
SECTION
  2
HEADER
  9
$ACADVER
  1
AC1024
  9
$ACADMAINTVER
 70
   205
  9
$DWGCODEPAGE
  3
ANSI_1252
  9
$LASTSAVEDBY
  1
Maria
  9
$INSBASE
 10
0.0
 20
0.0
 30
0.0
  9
$EXTMIN
 10
-0.0000044706512199
 20
0.0000018456050839
 30
0.0
  9
$EXTMAX
 10
4695.911071913266
 20
600.0000018456053
 30
0.0
  9
$LIMMIN
 10
0.0
 20
0.0
  9
$LIMMAX
 10
420.0
 20
297.0
  9
$ORTHOMODE
 70
     1
  9
$REGENMODE
 70
     1
  9
$FILLMODE
 70
     1
  9
$QTEXTMODE
 70
     0
  9
$MIRRTEXT
 70
     0
  9
$LTSCALE
 40
1.0
  9
$ATTMODE
 70
     1
  9
$TEXTSIZE
 40
2.5
  9
$TRACEWID
 40
1.0
  9
$TEXTSTYLE
  7
Standard
  9
$CLAYER
  8
corte interior 2
  9
$CELTYPE
  6
ByLayer
  9
$CECOLOR
 62
   256
  9
$CELTSCALE
 40
1.0
  9
$DISPSILH
 70
     0
  9
$DIMSCALE
 40
1.0
  9
$DIMASZ
 40
2.5
  9
$DIMEXO
 40
0.625
  9
$DIMDLI
 40
3.75
  9
$DIMRND
 40
0.0
  9
$DIMDLE
 40
0.0
  9
$DIMEXE
 40
1.25
  9
$DIMTP
 40
0.0
  9
$DIMTM
 40
0.0
  9
$DIMTXT
 40
2.5
  9
$DIMCEN
 40
2.5
  9
$DIMTSZ
 40
0.0
  9
$DIMTOL
 70
     0
  9
$DIMLIM
 70
     0
  9
$DIMTIH
 70
     0
  9
$DIMTOH
 70
     0
  9
$DIMSE1
 70
     0
  9
$DIMSE2
 70
     0
  9
$DIMTAD
 70
     1
  9
$DIMZIN
 70
     8
  9
$DIMBLK
  1

  9
$DIMASO
 70
     1
  9
$DIMSHO
 70
     1
  9
$DIMPOST
  1

  9
$DIMAPOST
  1

  9
$DIMALT
 70
     0
  9
$DIMALTD
 70
     3
  9
$DIMALTF
 40
0.03937007874016
  9
$DIMLFAC
 40
1.0
  9
$DIMTOFL
 70
     1
  9
$DIMTVP
 40
0.0
  9
$DIMTIX
 70
     0
  9
$DIMSOXD
 70
     0
  9
$DIMSAH
 70
     0
  9
$DIMBLK1
  1

  9
$DIMBLK2
  1

  9
$DIMSTYLE
  2
ISO-25
  9
$DIMCLRD
 70
     0
  9
$DIMCLRE
 70
     0
  9
$DIMCLRT
 70
     0
  9
$DIMTFAC
 40
1.0
  9
$DIMGAP
 40
0.625
  9
$DIMJUST
 70
     0
  9
$DIMSD1
 70
     0
  9
$DIMSD2
 70
     0
  9
$DIMTOLJ
 70
     0
  9
$DIMTZIN
 70
     8
  9
$DIMALTZ
 70
     0
  9
$DIMALTTZ
 70
     0
  9
$DIMUPT
 70
     0
  9
$DIMDEC
 70
     2
  9
$DIMTDEC
 70
     2
  9
$DIMALTU
 70
     2
  9
$DIMALTTD
 70
     3
  9
$DIMTXSTY
  7
Standard
  9
$DIMAUNIT
 70
     0
  9
$DIMADEC
 70
     0
  9
$DIMALTRND
 40
0.0
  9
$DIMAZIN
 70
     0
  9
$DIMDSEP
 70
    44
  9
$DIMATFIT
 70
     3
  9
$DIMFRAC
 70
     0
  9
$DIMLDRBLK
  1

  9
$DIMLUNIT
 70
     2
  9
$DIMLWD
 70
    -2
  9
$DIMLWE
 70
    -2
  9
$DIMTMOVE
 70
     0
  9
$DIMFXL
 40
1.0
  9
$DIMFXLON
 70
     0
  9
$DIMJOGANG
 40
1.570796326794896
  9
$DIMTFILL
 70
     0
  9
$DIMTFILLCLR
 70
     0
  9
$DIMARCSYM
 70
     0
  9
$DIMLTYPE
  6

  9
$DIMLTEX1
  6

  9
$DIMLTEX2
  6

  9
$DIMTXTDIRECTION
 70
     0
  9
$LUNITS
 70
     2
  9
$LUPREC
 70
     4
  9
$SKETCHINC
 40
1.0
  9
$FILLETRAD
 40
0.0
  9
$AUNITS
 70
     0
  9
$AUPREC
 70
     0
  9
$MENU
  1
.
  9
$ELEVATION
 40
0.0
  9
$PELEVATION
 40
0.0
  9
$THICKNESS
 40
0.0
  9
$LIMCHECK
 70
     0
  9
$CHAMFERA
 40
0.0
  9
$CHAMFERB
 40
0.0
  9
$CHAMFERC
 40
0.0
  9
$CHAMFERD
 40
0.0
  9
$SKPOLY
 70
     0
  9
$TDCREATE
 40
2457486.577065741
  9
$TDUCREATE
 40
2457486.493732407
  9
$TDUPDATE
 40
2457520.727256238
  9
$TDUUPDATE
 40
2457520.643922905
  9
$TDINDWG
 40
0.0433931250
  9
$TDUSRTIMER
 40
0.0433925694
  9
$USRTIMER
 70
     1
  9
$ANGBASE
 50
0.0
  9
$ANGDIR
 70
     0
  9
$PDMODE
 70
     0
  9
$PDSIZE
 40
0.0
  9
$PLINEWID
 40
0.0
  9
$SPLFRAME
 70
     0
  9
$SPLINETYPE
 70
     6
  9
$SPLINESEGS
 70
     8
  9
$HANDSEED
  5
7C4
  9
$SURFTAB1
 70
     6
  9
$SURFTAB2
 70
     6
  9
$SURFTYPE
 70
     6
  9
$SURFU
 70
     6
  9
$SURFV
 70
     6
  9
$UCSBASE
  2

  9
$UCSNAME
  2

  9
$UCSORG
 10
0.0
 20
0.0
 30
0.0
  9
$UCSXDIR
 10
1.0
 20
0.0
 30
0.0
  9
$UCSYDIR
 10
0.0
 20
1.0
 30
0.0
  9
$UCSORTHOREF
  2

  9
$UCSORTHOVIEW
 70
     0
  9
$UCSORGTOP
 10
0.0
 20
0.0
 30
0.0
  9
$UCSORGBOTTOM
 10
0.0
 20
0.0
 30
0.0
  9
$UCSORGLEFT
 10
0.0
 20
0.0
 30
0.0
  9
$UCSORGRIGHT
 10
0.0
 20
0.0
 30
0.0
  9
$UCSORGFRONT
 10
0.0
 20
0.0
 30
0.0
  9
$UCSORGBACK
 10
0.0
 20
0.0
 30
0.0
  9
$PUCSBASE
  2

  9
$PUCSNAME
  2

  9
$PUCSORG
 10
0.0
 20
0.0
 30
0.0
  9
$PUCSXDIR
 10
1.0
 20
0.0
 30
0.0
  9
$PUCSYDIR
 10
0.0
 20
1.0
 30
0.0
  9
$PUCSORTHOREF
  2

  9
$PUCSORTHOVIEW
 70
     0
  9
$PUCSORGTOP
 10
0.0
 20
0.0
 30
0.0
  9
$PUCSORGBOTTOM
 10
0.0
 20
0.0
 30
0.0
  9
$PUCSORGLEFT
 10
0.0
 20
0.0
 30
0.0
  9
$PUCSORGRIGHT
 10
0.0
 20
0.0
 30
0.0
  9
$PUCSORGFRONT
 10
0.0
 20
0.0
 30
0.0
  9
$PUCSORGBACK
 10
0.0
 20
0.0
 30
0.0
  9
$USERI1
 70
     0
  9
$USERI2
 70
     0
  9
$USERI3
 70
     0
  9
$USERI4
 70
     0
  9
$USERI5
 70
     0
  9
$USERR1
 40
0.0
  9
$USERR2
 40
0.0
  9
$USERR3
 40
0.0
  9
$USERR4
 40
0.0
  9
$USERR5
 40
0.0
  9
$WORLDVIEW
 70
     1
  9
$SHADEDGE
 70
     3
  9
$SHADEDIF
 70
    70
  9
$TILEMODE
 70
     1
  9
$MAXACTVP
 70
    64
  9
$PINSBASE
 10
0.0
 20
0.0
 30
0.0
  9
$PLIMCHECK
 70
     0
  9
$PEXTMIN
 10
1.000000000000000E+20
 20
1.000000000000000E+20
 30
1.000000000000000E+20
  9
$PEXTMAX
 10
-1.000000000000000E+20
 20
-1.000000000000000E+20
 30
-1.000000000000000E+20
  9
$PLIMMIN
 10
0.0
 20
0.0
  9
$PLIMMAX
 10
420.0
 20
297.0
  9
$UNITMODE
 70
     0
  9
$VISRETAIN
 70
     1
  9
$PLINEGEN
 70
     0
  9
$PSLTSCALE
 70
     1
  9
$TREEDEPTH
 70
  3020
  9
$CMLSTYLE
  2
Standard
  9
$CMLJUST
 70
     0
  9
$CMLSCALE
 40
20.0
  9
$PROXYGRAPHICS
 70
     1
  9
$MEASUREMENT
 70
     1
  9
$CELWEIGHT
370
    -1
  9
$ENDCAPS
280
     0
  9
$JOINSTYLE
280
     0
  9
$LWDISPLAY
290
     0
  9
$INSUNITS
 70
     4
  9
$HYPERLINKBASE
  1

  9
$STYLESHEET
  1

  9
$XEDIT
290
     1
  9
$CEPSNTYPE
380
     0
  9
$PSTYLEMODE
290
     1
  9
$FINGERPRINTGUID
  2
{CCEFAE77-36C7-4F54-84C2-1BFF8DA5ACFC}
  9
$VERSIONGUID
  2
{78CB618B-CF2F-44ED-A205-867918969C53}
  9
$EXTNAMES
290
     1
  9
$PSVPSCALE
 40
0.0
  9
$OLESTARTUP
290
     0
  9
$SORTENTS
280
   127
  9
$INDEXCTL
280
     0
  9
$HIDETEXT
280
     1
  9
$XCLIPFRAME
280
     2
  9
$HALOGAP
280
     0
  9
$OBSCOLOR
 70
   257
  9
$OBSLTYPE
280
     0
  9
$INTERSECTIONDISPLAY
280
     0
  9
$INTERSECTIONCOLOR
 70
   257
  9
$DIMASSOC
280
     2
  9
$PROJECTNAME
  1

  9
$CAMERADISPLAY
290
     0
  9
$LENSLENGTH
 40
50.0
  9
$CAMERAHEIGHT
 40
0.0
  9
$STEPSPERSEC
 40
2.0
  9
$STEPSIZE
 40
6.0
  9
$3DDWFPREC
 40
2.0
  9
$PSOLWIDTH
 40
0.25
  9
$PSOLHEIGHT
 40
4.0
  9
$LOFTANG1
 40
1.570796326794896
  9
$LOFTANG2
 40
1.570796326794896
  9
$LOFTMAG1
 40
0.0
  9
$LOFTMAG2
 40
0.0
  9
$LOFTPARAM
 70
     7
  9
$LOFTNORMALS
280
     1
  9
$LATITUDE
 40
37.795
  9
$LONGITUDE
 40
-122.394
  9
$NORTHDIRECTION
 40
0.0
  9
$TIMEZONE
 70
 -8000
  9
$LIGHTGLYPHDISPLAY
280
     1
  9
$TILEMODELIGHTSYNCH
280
     1
  9
$CMATERIAL
347
11
  9
$SOLIDHIST
280
     0
  9
$SHOWHIST
280
     1
  9
$DWFFRAME
280
     2
  9
$DGNFRAME
280
     0
  9
$REALWORLDSCALE
290
     1
  9
$INTERFERECOLOR
 62
     1
  9
$INTERFEREOBJVS
345
33
  9
$INTERFEREVPVS
346
30
  9
$CSHADOW
280
     0
  9
$SHADOWPLANELOCATION
 40
0.0
  0
ENDSEC
  0
SECTION
  2
CLASSES
  0
CLASS
  1
ACDBDICTIONARYWDFLT
  2
AcDbDictionaryWithDefault
  3
ObjectDBX Classes
 90
        0
 91
        1
280
     0
281
     0
  0
CLASS
  1
MATERIAL
  2
AcDbMaterial
  3
ObjectDBX Classes
 90
     1153
 91
        3
280
     0
281
     0
  0
CLASS
  1
VISUALSTYLE
  2
AcDbVisualStyle
  3
ObjectDBX Classes
 90
     4095
 91
       24
280
     0
281
     0
  0
CLASS
  1
SCALE
  2
AcDbScale
  3
ObjectDBX Classes
 90
     1153
 91
       17
280
     0
281
     0
  0
CLASS
  1
TABLESTYLE
  2
AcDbTableStyle
  3
ObjectDBX Classes
 90
     4095
 91
        1
280
     0
281
     0
  0
CLASS
  1
MLEADERSTYLE
  2
AcDbMLeaderStyle
  3
ACDB_MLEADERSTYLE_CLASS
 90
     4095
 91
        1
280
     0
281
     0
  0
CLASS
  1
ACDBSECTIONVIEWSTYLE
  2
AcDbSectionViewStyle
  3
ObjectDBX Classes
 90
     1025
 91
        1
280
     0
281
     0
  0
CLASS
  1
ACDBDETAILVIEWSTYLE
  2
AcDbDetailViewStyle
  3
ObjectDBX Classes
 90
     1025
 91
        1
280
     0
281
     0
  0
CLASS
  1
SORTENTSTABLE
  2
AcDbSortentsTable
  3
ObjectDBX Classes
 90
        0
 91
        2
280
     0
281
     0
  0
CLASS
  1
DICTIONARYVAR
  2
AcDbDictionaryVar
  3
ObjectDBX Classes
 90
        0
 91
        5
280
     0
281
     0
  0
CLASS
  1
RAPIDRTRENDERSETTINGS
  2
AcDbRapidRTRenderSettings
  3
ObjectDBX Classes
 90
     1024
 91
        7
280
     0
281
     0
  0
CLASS
  1
CELLSTYLEMAP
  2
AcDbCellStyleMap
  3
ObjectDBX Classes
 90
     1152
 91
        1
280
     0
281
     0
  0
CLASS
  1
MENTALRAYRENDERSETTINGS
  2
AcDbMentalRayRenderSettings
  3
SCENEOE
 90
     1024
 91
        1
280
     0
281
     0
  0
ENDSEC
  0
SECTION
  2
TABLES
  0
TABLE
  2
VPORT
  5
8
330
0
100
AcDbSymbolTable
 70
     1
  0
VPORT
  5
57
330
8
100
AcDbSymbolTableRecord
100
AcDbViewportTableRecord
  2
*Active
 70
     0
 10
0.0
 20
0.0
 11
1.0
 21
1.0
 12
2347.955533721308
 22
405.7230197579392
 13
0.0
 23
0.0
 14
10.0
 24
10.0
 15
10.0
 25
10.0
 16
0.0
 26
0.0
 36
1.0
 17
0.0
 27
0.0
 37
0.0
 40
1825.202340724344
 41
2.504761904761904
 42
50.0
 43
0.0
 44
0.0
 50
0.0
 51
0.0
 71
     0
 72
  1000
 73
     1
 74
     3
 75
     0
 76
     0
 77
     0
 78
     0
281
     0
 65
     1
110
0.0
120
0.0
130
0.0
111
1.0
121
0.0
131
0.0
112
0.0
122
1.0
132
0.0
 79
     0
146
0.0
348
2F
 60
     3
 61
     5
292
     1
282
     1
141
0.0
142
0.0
 63
   250
421
  3355443
1001
ACAD_NAV_VCDISPLAY
1070
     1
  0
ENDTAB
  0
TABLE
  2
LTYPE
  5
5
330
0
100
AcDbSymbolTable
 70
     1
  0
LTYPE
  5
5B
330
5
100
AcDbSymbolTableRecord
100
AcDbLinetypeTableRecord
  2
ByBlock
 70
     0
  3

 72
    65
 73
     0
 40
0.0
  0
LTYPE
  5
5C
330
5
100
AcDbSymbolTableRecord
100
AcDbLinetypeTableRecord
  2
ByLayer
 70
     0
  3

 72
    65
 73
     0
 40
0.0
  0
LTYPE
  5
5D
330
5
100
AcDbSymbolTableRecord
100
AcDbLinetypeTableRecord
  2
Continuous
 70
     0
  3
Solid line
 72
    65
 73
     0
 40
0.0
  0
ENDTAB
  0
TABLE
  2
LAYER
  5
2
102
{ACAD_XDICTIONARY
360
80
102
}
330
0
100
AcDbSymbolTable
 70
     5
  0
LAYER
  5
54
330
2
100
AcDbSymbolTableRecord
100
AcDbLayerTableRecord
  2
0
 70
     0
 62
     7
  6
Continuous
370
    -3
390
F
347
21
  0
LAYER
  5
104
330
2
100
AcDbSymbolTableRecord
100
AcDbLayerTableRecord
  2
grabado
 70
     0
 62
     5
  6
Continuous
370
    -3
390
F
347
21
1001
AcAecLayerStandard
1000

1000

1001
AcCmTransparency
1071
        0
  0
LAYER
  5
107
330
2
100
AcDbSymbolTableRecord
100
AcDbLayerTableRecord
  2
corte interior
 70
     0
 62
     3
  6
Continuous
370
    -3
390
F
347
21
1001
AcAecLayerStandard
1000

1000

1001
AcCmTransparency
1071
        0
  0
LAYER
  5
108
330
2
100
AcDbSymbolTableRecord
100
AcDbLayerTableRecord
  2
corte exterior
 70
     0
 62
     2
  6
Continuous
370
    -3
390
F
347
21
1001
AcAecLayerStandard
1000

1000

1001
AcCmTransparency
1071
        0
  0
LAYER
  5
109
330
2
100
AcDbSymbolTableRecord
100
AcDbLayerTableRecord
  2
corte interior 2
 70
     0
 62
     7
  6
Continuous
370
    -3
390
F
347
21
1001
AcAecLayerStandard
1000

1000

1001
AcCmTransparency
1071
        0
  0
ENDTAB
  0
TABLE
  2
STYLE
  5
3
330
0
100
AcDbSymbolTable
 70
     2
  0
STYLE
  5
55
330
3
100
AcDbSymbolTableRecord
100
AcDbTextStyleTableRecord
  2
Standard
 70
     0
 40
0.0
 41
1.0
 50
0.0
 71
     0
 42
2.5
  3
txt
  4

  0
STYLE
  5
5A
330
3
100
AcDbSymbolTableRecord
100
AcDbTextStyleTableRecord
  2
Annotative
 70
     0
 40
0.0
 41
1.0
 50
0.0
 71
     0
 42
0.2
  3
txt
  4

1001
AcadAnnotative
1000
AnnotativeData
1002
{
1070
     1
1070
     1
1002
}
  0
ENDTAB
  0
TABLE
  2
VIEW
  5
6
330
0
100
AcDbSymbolTable
 70
     0
  0
ENDTAB
  0
TABLE
  2
UCS
  5
7
330
0
100
AcDbSymbolTable
 70
     0
  0
ENDTAB
  0
TABLE
  2
APPID
  5
9
330
0
100
AcDbSymbolTable
 70
     9
  0
APPID
  5
56
330
9
100
AcDbSymbolTableRecord
100
AcDbRegAppTableRecord
  2
ACAD
 70
     0
  0
APPID
  5
5E
330
9
100
AcDbSymbolTableRecord
100
AcDbRegAppTableRecord
  2
AcadAnnotative
 70
     0
  0
APPID
  5
7A
330
9
100
AcDbSymbolTableRecord
100
AcDbRegAppTableRecord
  2
ACAD_NAV_VCDISPLAY
 70
     0
  0
APPID
  5
7D
330
9
100
AcDbSymbolTableRecord
100
AcDbRegAppTableRecord
  2
ACAD_PSEXT
 70
     0
  0
APPID
  5
7E
330
9
100
AcDbSymbolTableRecord
100
AcDbRegAppTableRecord
  2
ACAD_DSTYLE_DIMJAG
 70
     0
  0
APPID
  5
7F
330
9
100
AcDbSymbolTableRecord
100
AcDbRegAppTableRecord
  2
ACAD_DSTYLE_DIMTALN
 70
     0
  0
APPID
  5
105
330
9
100
AcDbSymbolTableRecord
100
AcDbRegAppTableRecord
  2
AcAecLayerStandard
 70
     0
  0
APPID
  5
106
330
9
100
AcDbSymbolTableRecord
100
AcDbRegAppTableRecord
  2
AcCmTransparency
 70
     0
  0
APPID
  5
12D
330
9
100
AcDbSymbolTableRecord
100
AcDbRegAppTableRecord
  2
ACAD_EXEMPT_FROM_CAD_STANDARDS
 70
     0
  0
ENDTAB
  0
TABLE
  2
DIMSTYLE
  5
A
330
0
100
AcDbSymbolTable
 70
     3
100
AcDbDimStyleTable
 71
     1
340
58
  0
DIMSTYLE
105
58
330
A
100
AcDbSymbolTableRecord
100
AcDbDimStyleTableRecord
  2
ISO-25
 70
     0
 41
2.5
 42
0.625
 43
3.75
 44
1.25
 50
90.0
 73
     0
 74
     0
 77
     1
 78
     8
140
2.5
141
2.5
143
0.03937007874016
147
0.625
171
     3
172
     1
271
     2
272
     2
274
     3
278
    44
283
     0
284
     8
340
55
  0
DIMSTYLE
105
59
330
A
100
AcDbSymbolTableRecord
100
AcDbDimStyleTableRecord
  2
Annotative
 70
     0
340
55
1001
AcadAnnotative
1000
AnnotativeData
1002
{
1070
     1
1070
     1
1002
}
  0
DIMSTYLE
105
7C
330
A
100
AcDbSymbolTableRecord
100
AcDbDimStyleTableRecord
  2
Anotativo
 70
     0
 40
0.0
 41
2.5
 42
0.625
 43
3.75
 44
1.25
 73
     0
 74
     0
 77
     1
 78
     8
140
2.5
141
2.5
143
0.03937007874016
147
0.625
171
     3
172
     1
271
     2
272
     2
274
     3
278
    44
283
     0
284
     8
340
55
1001
AcadAnnotative
1000
AnnotativeData
1002
{
1070
     1
1070
     1
1002
}
1001
ACAD_DSTYLE_DIMJAG
1070
   388
1040
1.5
1001
ACAD_DSTYLE_DIMTALN
1070
   392
1070
     0
  0
ENDTAB
  0
TABLE
  2
BLOCK_RECORD
  5
1
330
0
100
AcDbSymbolTable
 70
     3
  0
BLOCK_RECORD
  5
70
102
{ACAD_XDICTIONARY
360
259
102
}
330
1
100
AcDbSymbolTableRecord
100
AcDbBlockTableRecord
  2
*Model_Space
340
73
 70
     0
280
     1
281
     0
  0
BLOCK_RECORD
  5
6C
330
1
100
AcDbSymbolTableRecord
100
AcDbBlockTableRecord
  2
*Paper_Space
340
6F
 70
     0
280
     1
281
     0
  0
BLOCK_RECORD
  5
74
330
1
100
AcDbSymbolTableRecord
100
AcDbBlockTableRecord
  2
*Paper_Space0
340
77
 70
     0
280
     1
281
     0
  0
BLOCK_RECORD
  5
274
102
{ACAD_XDICTIONARY
360
276
102
}
330
1
100
AcDbSymbolTableRecord
100
AcDbBlockTableRecord
  2
A$C5DCE2796
340
0
 70
     4
280
     1
281
     0
  0
BLOCK_RECORD
  5
630
102
{ACAD_XDICTIONARY
360
66C
102
}
330
1
100
AcDbSymbolTableRecord
100
AcDbBlockTableRecord
  2
A$C7ED81B18
340
0
 70
     4
280
     1
281
     0
  0
ENDTAB
  0
ENDSEC
  0
SECTION
  2
BLOCKS
  0
BLOCK
  5
71
330
70
100
AcDbEntity
  8
0
100
AcDbBlockBegin
  2
*Model_Space
 70
     0
 10
0.0
 20
0.0
 30
0.0
  3
*Model_Space
  1

  0
ENDBLK
  5
72
330
70
100
AcDbEntity
  8
0
100
AcDbBlockEnd
  0
BLOCK
  5
6D
330
6C
100
AcDbEntity
 67
     1
  8
0
100
AcDbBlockBegin
  2
*Paper_Space
 70
     0
 10
0.0
 20
0.0
 30
0.0
  3
*Paper_Space
  1

  0
ENDBLK
  5
6E
330
6C
100
AcDbEntity
 67
     1
  8
0
100
AcDbBlockEnd
  0
BLOCK
  5
75
330
74
100
AcDbEntity
 67
     1
  8
0
100
AcDbBlockBegin
  2
*Paper_Space0
 70
     0
 10
0.0
 20
0.0
 30
0.0
  3
*Paper_Space0
  1

  0
ENDBLK
  5
76
330
74
100
AcDbEntity
 67
     1
  8
0
100
AcDbBlockEnd
  0
BLOCK
  5
278
330
274
100
AcDbEntity
  8
0
100
AcDbBlockBegin
  2
A$C5DCE2796
 70
     0
 10
0.0
 20
0.0
 30
0.0
  3
A$C5DCE2796
  1

  0
LWPOLYLINE
  5
275
330
274
100
AcDbEntity
  8
0
 62
     3
100
AcDbPolyline
 90
        4
 70
     1
 43
0.0
 10
299.9999941904789
 20
-0.0000009734440027
 10
299.9999941904789
 20
599.999999026556
 10
-0.0000058095210989
 20
599.999999026556
 10
-0.0000058095210989
 20
-0.0000009734440027
  0
ENDBLK
  5
279
330
274
100
AcDbEntity
  8
0
100
AcDbBlockEnd
  0
BLOCK
  5
66D
330
630
100
AcDbEntity
  8
0
100
AcDbBlockBegin
  2
A$C7ED81B18
 70
     0
 10
0.0
 20
0.0
 30
0.0
  3
A$C7ED81B18
  1

  0
LWPOLYLINE
  5
631
330
630
100
AcDbEntity
  8
0
100
AcDbPolyline
 90
        6
 70
     1
 43
0.0
 10
1038.376538360653
 20
1725.76482304112
 42
-1.792099551452108
 10
1038.376538360653
 20
1347.058345828262
 10
1038.376538360653
 20
1313.911657448399
 10
932.7214223400023
 20
1313.911657448399
 10
932.7214223400023
 20
1990.258072901715
 10
1038.376538360653
 20
1990.258072901715
  0
CIRCLE
  5
632
330
630
100
AcDbEntity
  8
0
100
AcDbCircle
 10
642.7869356365672
 20
1536.411584434691
 30
0.0
 40
116.8399269862925
  0
LWPOLYLINE
  5
633
330
630
100
AcDbEntity
  8
0
100
AcDbPolyline
 90
        6
 70
     1
 43
0.0
 10
759.6268626228593
 20
1313.911657448399
 10
759.6268626228593
 20
1347.058345828262
 42
-1.792099551452097
 10
759.6268626228593
 20
1725.764823041121
 10
759.6268626228593
 20
1758.455147259649
 10
865.2819786435102
 20
1758.455147259649
 10
865.2819786435102
 20
1313.911657448399
  0
CIRCLE
  5
634
330
630
100
AcDbEntity
  8
0
100
AcDbCircle
 10
1155.216465346946
 20
1536.411584434691
 30
0.0
 40
116.8399269862925
  0
ARC
  5
635
330
630
100
AcDbEntity
  8
0
100
AcDbCircle
 10
1155.216465346946
 20
1536.411584434691
 30
0.0
 40
222.4999269862925
100
AcDbArc
 50
177.7213095212929
 51
180.3796298887927
  0
LWPOLYLINE
  5
636
330
630
100
AcDbEntity
  8
0
100
AcDbPolyline
 90
       13
 70
     0
 43
0.0
 10
2.057201935207558
 20
1769.232373253287
 10
2.057201935207558
 20
1313.911657448399
 10
107.7123179558584
 20
1313.911657448399
 10
107.7123179558584
 20
1578.404907308994
 42
0.1391019420095039
 10
224.5522449421514
 20
1545.258218929131
 10
344.4322708630661
 20
1545.258218929131
 10
344.4322708630661
 20
1650.918218929131
 10
224.5522449421514
 20
1650.91821892913
 42
-0.9999999999999998
 10
224.5522449421514
 20
1884.598072901716
 10
344.4322708630661
 20
1884.598072901716
 10
344.4322708630661
 20
1990.258072901715
 10
224.5522449421514
 20
1990.258072901715
 42
0.4161555459883662
 10
2.057201935207558
 20
1766.283918577559
  0
LWPOLYLINE
  5
637
330
630
100
AcDbEntity
  8
0
100
AcDbPolyline
 90
        6
 70
     1
 43
0.0
 10
1038.376538360653
 20
962.1792247360652
 42
-1.792099551452108
 10
1038.376538360653
 20
583.4727475232073
 10
1038.376538360653
 20
550.3260591433436
 10
932.7214223400023
 20
550.3260591433436
 10
932.7214223400023
 20
1226.67247459666
 10
1038.376538360653
 20
1226.67247459666
  0
CIRCLE
  5
638
330
630
100
AcDbEntity
  8
0
100
AcDbCircle
 10
642.7869356365672
 20
772.8259861296362
 30
0.0
 40
116.8399269862925
  0
LWPOLYLINE
  5
639
330
630
100
AcDbEntity
  8
0
100
AcDbPolyline
 90
        6
 70
     1
 43
0.0
 10
759.6268626228593
 20
550.3260591433436
 10
759.6268626228593
 20
583.4727475232066
 42
-1.792099551452097
 10
759.6268626228593
 20
962.1792247360659
 10
759.6268626228593
 20
994.8695489545944
 10
865.2819786435102
 20
994.8695489545944
 10
865.2819786435102
 20
550.3260591433436
  0
CIRCLE
  5
63A
330
630
100
AcDbEntity
  8
0
100
AcDbCircle
 10
1155.216465346946
 20
772.8259861296362
 30
0.0
 40
116.8399269862925
  0
ARC
  5
63B
330
630
100
AcDbEntity
  8
0
100
AcDbCircle
 10
1155.216465346946
 20
772.8259861296362
 30
0.0
 40
222.4999269862925
100
AcDbArc
 50
177.7213095212897
 51
180.3796298887947
  0
LWPOLYLINE
  5
63C
330
630
100
AcDbEntity
  8
0
100
AcDbPolyline
 90
        8
 70
     0
 43
0.0
 10
-0.0000023728862288
 20
486.6561181971592
 10
-0.0000023728862288
 20
993.0771363154745
 10
199.4901741671383
 20
993.0771363154745
 10
199.4901741671383
 20
486.6561181971592
 42
0.4142135623730951
 10
472.0248549589642
 20
214.1214374053334
 10
1012.26845379658
 20
214.1214374053334
 10
1012.26845379658
 20
14.63126086530883
 10
472.0248549589642
 20
14.63126086530883
  0
ARC
  5
63D
330
630
100
AcDbEntity
  8
0
100
AcDbCircle
 10
472.0248549589642
 20
486.6561181971592
 30
0.0
 40
472.0246807918258
100
AcDbArc
 50
180.0
 51
270.0
  0
LWPOLYLINE
  5
63E
330
630
100
AcDbEntity
  8
0
100
AcDbPolyline
 90
        2
 70
     1
 43
0.0
 10
1292.248317643674
 20
301.7846795781735
 10
1487.262080751961
 20
301.7846795781735
 42
0.5380769053259915
  0
LWPOLYLINE
  5
63F
330
630
100
AcDbEntity
  8
0
100
AcDbPolyline
 90
        4
 70
     1
 43
0.0
 10
1486.239546325304
 20
171.5145251021088
 10
1573.491707298378
 20
111.9234518987438
 42
-9.660910183058563
 10
1608.391109058955
 20
196.1246795781735
 10
1280.452810797272
 20
196.1246795781735
 42
0.6066660738277907
  0
LWPOLYLINE
  5
640
330
630
100
AcDbEntity
  8
0
100
AcDbPolyline
 90
       10
 70
     1
 43
0.0
 10
2307.716217253161
 20
237.4109536665228
 10
2307.716217253161
 20
14.63126086530883
 10
2202.056217253161
 20
14.63126086530883
 10
2202.056217253161
 20
459.9108806528152
 10
2307.716217253161
 20
459.9108806528152
 10
2307.716217253161
 20
425.0210351231791
 42
-0.5844962528059511
 10
2640.837007184764
 20
237.4109536665228
 10
2640.837007184764
 20
14.63126086530883
 10
2535.177007184764
 20
14.63126086530883
 10
2535.177007184764
 20
237.4109536665228
 42
0.9999999999999994
  0
LWPOLYLINE
  5
641
330
630
100
AcDbEntity
  8
0
100
AcDbPolyline
 90
        7
 70
     0
 43
0.0
 10
2023.569483234456
 20
1802.906586851048
 10
2508.372144664092
 20
1982.572469285117
 10
2552.445111058333
 20
1876.886653429964
 10
2642.446594684843
 20
560.3016501543716
 10
2603.662387367207
 20
526.8344739498443
 10
1928.464492458665
 20
577.91595172078
 10
2023.569483234456
 20
1802.906586851048
  0
LWPOLYLINE
  5
642
330
630
100
AcDbEntity
  8
0
100
AcDbPolyline
 90
       42
 70
     1
 43
0.0
 10
2109.499817817834
 20
355.5527458956425
 10
2096.755915475229
 20
346.5820244887302
 10
1925.077271966394
 20
444.7311021936931
 10
1855.195752544544
 20
404.8273570067521
 10
1882.13642590917
 20
390.6136855107321
 10
1890.954111585537
 20
393.3838365693188
 10
1900.435219792616
 20
395.2129853726901
 10
1911.156513354984
 20
396.5972339038432
 10
1927.481949070423
 20
396.1233573049661
 10
1940.301216256433
 20
393.8204494734784
 10
1950.432218468308
 20
390.6515422753189
 10
1954.489326917866
 20
388.9968641487343
 10
1959.119088429824
 20
386.7974919863311
 10
1967.66278154568
 20
381.6935701592579
 10
1976.734722834542
 20
374.2030640551695
 10
1982.932987490559
 20
367.004460118163
 10
1988.644502517678
 20
356.9237046226882
 10
1991.759397314365
 20
345.5825310077615
 10
1991.618034865838
 20
333.2541130572801
 10
1988.438817615917
 20
322.4351533989587
 10
1979.606367435397
 20
308.7876602086049
 10
1971.183459116025
 20
300.9528611387773
 10
1960.123865575735
 20
293.9116296638488
 10
1949.122235806161
 20
289.1809331867464
 10
1937.022049908502
 20
285.8832930182379
 10
1923.173427718715
 20
284.1228343989763
 10
1910.035861571308
 20
284.2589828947126
 10
1898.146600603232
 20
285.8978530329321
 10
1890.131855759229
 20
287.8758592582429
 10
1878.584585144843
 20
292.1535931263901
 10
1869.976971102614
 20
296.6957086107395
 10
1862.719838513149
 20
301.7422137058574
 10
1856.573580877576
 20
307.2710035121974
 10
1851.140132653027
 20
313.6994432249944
 10
1846.651741118079
 20
321.1033603194114
 10
1843.845266157845
 20
328.1443791203503
 10
1842.138145466193
 20
336.610610324585
 10
1842.08246528056
 20
344.4031400630929
 10
1842.661421691316
 20
350.2456657161574
 10
1799.526430952197
 20
373.0013923138283
 10
1745.110451371371
 20
341.8916508858237
 10
1735.527002530008
 20
348.123447323359
 42
-0.529777980499569
  0
LWPOLYLINE
  5
643
330
630
100
AcDbEntity
  8
0
100
AcDbPolyline
 90
       42
 70
     1
 43
0.0
 10
1951.952328253261
 20
0.4493993791471809
 10
1950.384167567747
 20
14.21803754200829
 10
2118.81990416096
 20
117.8336769487603
 10
2117.299936015732
 20
198.2912765493463
 10
2091.911081173383
 20
181.4617076739885
 10
2090.115158253482
 20
172.3952872976568
 10
2087.175373176432
 20
163.1977407835064
 10
2083.250619682802
 20
153.1250753139946
 10
2075.008645452441
 20
139.0249238567956
 10
2066.84228946521
 20
128.8786129234329
 10
2059.204628271553
 20
121.506685757591
 10
2055.807571979942
 20
118.7393590284708
 10
2051.657969567858
 20
115.7305836317398
 10
2043.083050896226
 20
110.6792986615854
 10
2032.160416947405
 20
106.3085014729693
 10
2022.871543175032
 20
104.3197311421289
 10
2011.28661097795
 20
104.1397832231185
 10
1999.84029615711
 20
106.8428676799129
 10
1989.088555142531
 20
112.8769324507801
 10
1981.117814058915
 20
120.8534352551767
 10
1973.374781845541
 20
135.1471995849386
 10
1970.536684991854
 20
146.2950544131206
 10
1969.659004388964
 20
159.3764620865802
 10
1970.781279055721
 20
171.2993747474027
 10
1973.687840616342
 20
183.4994087364201
 10
1978.781610050207
 20
196.4969878979498
 10
1985.198988946399
 20
207.9613426025578
 10
1992.336753808147
 20
217.609800224134
 10
1997.914779150884
 20
223.6953796392461
 10
2007.204486090229
 20
231.7786840792422
 10
2015.317001963334
 20
237.1553855570763
 10
2023.22477917776
 20
241.1051003091996
 10
2031.023281017243
 20
243.8487053655279
 10
2039.269615039215
 20
245.5354691154342
 10
2047.918993142292
 20
245.9252194740055
 10
2055.443610983837
 20
245.0128742562909
 10
2063.691996303573
 20
242.4525087596129
 10
2070.557467918834
 20
238.7657867049073
 10
2075.407369599902
 20
235.4568971304041
 10
2116.056034022259
 20
262.4038190275385
 10
2114.839866855326
 20
325.0730761069106
 10
2124.903055017527
 20
330.4961769307936
 42
-0.5261912403077151
  0
LWPOLYLINE
  5
644
330
630
100
AcDbEntity
  8
0
100
AcDbPolyline
 90
       42
 70
     1
 43
0.0
 10
1723.945082008619
 20
328.1493833512408
 10
1737.11502017963
 20
321.3159190727357
 10
1729.100649754705
 20
123.7239962670193
 10
1796.71321233803
 20
80.08597365408801
 10
1796.916136150136
 20
110.545572480447
 10
1790.394963064828
 20
117.0953525657661
 10
1784.403311917178
 20
124.6674932607122
 10
1778.235141113091
 20
133.5453279391742
 10
1771.134152779193
 20
148.2531617365659
 10
1767.271893533854
 20
160.6918091384524
 10
1765.416801900515
 20
171.1434986516116
 10
1765.016177290934
 20
175.5067071724444
 10
1764.835154495429
 20
180.6291246011452
 10
1765.428785751725
 20
190.5635250363186
 10
1767.897231869379
 20
202.0663322679549
 10
1771.430583845112
 20
210.8841441962924
 10
1777.74622451577
 20
220.5978313532706
 10
1786.376872678238
 20
228.5876186379247
 10
1797.383987960102
 20
234.1421920396698
 10
1808.451018557057
 20
236.3050938350908
 10
1824.633089413943
 20
234.753697897596
 10
1835.467464402358
 20
230.8877207078659
 10
1846.812307824175
 20
224.3159570409044
 10
1856.079749460847
 20
216.7311121343729
 10
1864.58142855919
 20
207.5110046541078
 10
1872.524347140805
 20
196.0308654776246
 10
1878.456344791844
 20
184.3079995925929
 10
1882.479485983233
 20
173.0007118253553
 10
1884.41653445763
 20
164.9759696644079
 10
1885.940009608446
 20
152.7564161065485
 10
1885.87445505601
 20
143.0241226885602
 10
1884.739030014151
 20
134.2580518999777
 10
1882.663746754951
 20
126.2557272977384
 10
1879.461575894268
 20
118.4715575585234
 10
1874.958214724355
 20
111.0767360538949
 10
1870.002036094073
 20
105.3418828873056
 10
1863.274419438648
 20
99.9261183062819
 10
1856.38387727311
 20
96.28646878008764
 10
1850.931650769043
 20
94.1085058142327
 10
1850.608460159179
 20
45.34021625143046
 10
1903.29058106764
 20
11.37686862425121
 10
1902.174957824409
 20
-0.0000010380525453
 42
-0.5282200191233379
  0
LWPOLYLINE
  5
645
330
630
100
AcDbEntity
  8
0
100
AcDbPolyline
 90
       42
 70
     1
 43
0.0
 10
6847.93147323074
 20
564.9361182237718
 10
6839.105723425776
 20
558.7234731030734
 10
6720.210214520388
 20
626.6963106314959
 10
6671.813986282977
 20
599.061096406448
 10
6690.47166556372
 20
589.2174625601313
 10
6696.578326266719
 20
591.135922032573
 10
6703.144438173409
 20
592.4026933291981
 10
6710.569436578386
 20
593.3613503304372
 10
6721.87556614592
 20
593.0331685704332
 10
6730.753509638036
 20
591.4382969370674
 10
6737.769703610005
 20
589.2436801443286
 10
6740.579441408114
 20
588.097737970544
 10
6743.785768297844
 20
586.57456964176
 10
6749.702676307946
 20
583.0398645052301
 10
6755.985420942072
 20
577.8523378740642
 10
6760.278009790316
 20
572.8669671779433
 10
6764.233501701777
 20
565.8855714126421
 10
6766.390712374401
 20
558.0312770113604
 10
6766.29281225174
 20
549.4932696258035
 10
6764.091055264824
 20
542.0006328708028
 10
6757.974169450541
 20
532.5491040435353
 10
6752.140910574379
 20
527.1231383931795
 10
6744.481623575225
 20
522.246755504651
 10
6736.86247920463
 20
518.9705264197383
 10
6728.482533215146
 20
516.6867560100455
 10
6718.891713126865
 20
515.4675558861047
 10
6709.79333268216
 20
515.5618451020282
 10
6701.55946209455
 20
516.6968395027932
 10
6696.00887555974
 20
518.0667015425306
 10
6688.011849324528
 20
521.0292327859056
 10
6682.050673076307
 20
524.1748606926812
 10
6677.024768544541
 20
527.6698020506422
 10
6672.76819699604
 20
531.4987481805775
 10
6669.005279381096
 20
535.950744046221
 10
6665.896857827855
 20
541.0783037289063
 10
6663.953242350661
 20
545.9545393307268
 10
6662.770981242065
 20
551.8178013356271
 10
6662.732420103234
 20
557.2144934924624
 10
6663.133374559095
 20
561.2607164041557
 10
6633.260371308733
 20
577.0201238589491
 10
6595.574754434003
 20
555.475169498873
 10
6588.937766840354
 20
559.790980677783
 42
-0.529777980499569
  0
LWPOLYLINE
  5
646
330
630
100
AcDbEntity
  8
0
100
AcDbPolyline
 90
       42
 70
     1
 43
0.0
 10
6738.822450898663
 20
319.0104035561101
 10
6737.736426108746
 20
328.5458309561016
 10
6854.386069947953
 20
400.3045187348114
 10
6853.333420751447
 20
456.0251783014471
 10
6835.750448546457
 20
444.3699128869638
 10
6834.506687731762
 20
438.0909917435855
 10
6832.470748749111
 20
431.721259602589
 10
6829.75267296277
 20
424.7454665595265
 10
6824.044719425417
 20
414.9804506619001
 10
6818.389135066411
 20
407.9536546826298
 10
6813.099696637104
 20
402.848249525167
 10
6810.747075901545
 20
400.9317460332851
 10
6807.873281698284
 20
398.8480280199964
 10
6801.934748526953
 20
395.3497763744925
 10
6794.370312465543
 20
392.3227944188948
 10
6787.937331916815
 20
390.9454777314581
 10
6779.914223270016
 20
390.8208553616053
 10
6771.987113654631
 20
392.6928680682309
 10
6764.541028961625
 20
396.871740798335
 10
6759.020917093775
 20
402.3958429279351
 10
6753.658504293532
 20
412.2949448163609
 10
6751.692989172692
 20
420.0153568950589
 10
6751.085154209625
 20
429.0748449638518
 10
6751.862382028463
 20
437.3320209262772
 10
6753.875312168474
 20
445.7811163998944
 10
6757.402986296764
 20
454.7825492943046
 10
6761.847322028377
 20
462.7221523749063
 10
6766.790558812752
 20
469.4041615964571
 10
6770.653602859801
 20
473.6187106327014
 10
6777.087160415715
 20
479.2167779018027
 10
6782.705457971672
 20
482.940395734364
 10
6788.18196440837
 20
485.6757583623932
 10
6793.582792525102
 20
487.5758334837974
 10
6799.29376542253
 20
488.7439964559026
 10
6805.283865240783
 20
489.0139168506663
 10
6810.495015849292
 20
488.3820750167576
 10
6816.207409366587
 20
486.6089018806612
 10
6820.962070312693
 20
484.0556740246618
 10
6824.320854589678
 20
481.7641128739469
 10
6852.471960306982
 20
500.4261195563835
 10
6851.629707530101
 20
543.8275180115797
 10
6858.598937093555
 20
547.583269566476
 42
-0.5261912403077151
  0
LWPOLYLINE
  5
647
330
630
100
AcDbEntity
  8
0
100
AcDbPolyline
 90
       42
 70
     1
 43
0.0
 10
6580.916743920159
 20
545.9580049952164
 10
6590.037543508806
 20
541.2255106303139
 10
6584.48721627676
 20
404.3838410002137
 10
6631.312085535052
 20
374.1624645951614
 10
6631.45261978798
 20
395.257164724986
 10
6626.936401714542
 20
399.7931944870239
 10
6622.786902406862
 20
405.037256899379
 10
6618.515154961878
 20
411.1855736061063
 10
6613.597387647118
 20
421.3714380123961
 10
6610.92259205744
 20
429.9857844605952
 10
6609.637854134866
 20
437.2240694224879
 10
6609.360402811495
 20
440.2457958698899
 10
6609.235036039279
 20
443.7933100776189
 10
6609.646153513631
 20
450.6733481025527
 10
6611.355668170583
 20
458.6395813607715
 10
6613.802680056922
 20
464.7463294991776
 10
6618.176557297879
 20
471.4735132319478
 10
6624.153685754203
 20
477.006815486901
 10
6631.776629099222
 20
480.8536179653864
 10
6639.441066608764
 20
482.3515288553087
 10
6650.647909290821
 20
481.2771144393263
 10
6658.15122188458
 20
478.5997439988618
 10
6666.008057799174
 20
474.0484895759486
 10
6672.426195589193
 20
468.7956289014985
 10
6678.314006922555
 20
462.4102722338121
 10
6683.814850403455
 20
454.4597376664627
 10
6687.923036868181
 20
446.3411034744426
 10
6690.709250747627
 20
438.5102766112505
 10
6692.050747624762
 20
432.9527664657835
 10
6693.105825587046
 20
424.4901527756679
 10
6693.060425986295
 20
417.750083334889
 10
6692.274090916207
 20
411.6791683613818
 10
6690.836859970165
 20
406.1371834262529
 10
6688.619206531733
 20
400.7462809608437
 10
6685.500417804502
 20
395.6250204004872
 10
6682.068031757935
 20
391.653365733352
 10
6677.408841834139
 20
387.902694870558
 10
6672.636818356664
 20
385.3820669473075
 10
6668.86089590283
 20
383.8737254907938
 10
6668.637071254359
 20
350.0993987166178
 10
6705.121909715379
 20
326.5781882868751
 10
6704.349288319149
 20
318.6991726993582
 42
-0.5282200191233379
  0
LWPOLYLINE
  5
648
330
630
100
AcDbEntity
  8
0
100
AcDbPolyline
 90
        4
 70
     1
 43
0.0
 10
4401.354847829757
 20
570.9064209065127
 10
4372.762077231699
 20
570.9064209065127
 10
4372.762077231699
 20
388.4849925736462
 10
4401.354847829757
 20
388.4849925736462
 42
0.9999999999999998
  0
LWPOLYLINE
  5
649
330
630
100
AcDbEntity
  8
0
100
AcDbPolyline
 90
        6
 70
     1
 43
0.0
 10
4407.6634595796
 20
347.6920944223057
 10
4317.696299403393
 20
347.6920944223057
 10
4317.696299403393
 20
611.6993190578532
 10
4407.6634595796
 20
611.6993190578532
 42
-0.1008614423162687
 10
4489.977213465407
 20
589.6345174692092
 42
-0.4783419811621664
 10
4489.977213465405
 20
369.7568960109493
 42
-0.1008614423162668
  0
LWPOLYLINE
  5
64A
330
630
100
AcDbEntity
  8
0
100
AcDbPolyline
 90
        2
 70
     1
 43
0.0
 10
4611.170487345273
 20
466.194734073807
 10
4700.568876139899
 20
466.194734073807
 42
0.9999999999999998
  0
LWPOLYLINE
  5
64B
330
630
100
AcDbEntity
  8
0
100
AcDbPolyline
 90
        8
 70
     1
 43
0.0
 10
4674.875012149143
 20
347.6920944223057
 42
0.1338066850368565
 10
4730.253476450619
 20
366.4095626703535
 10
4730.253476450619
 20
410.2417139345542
 42
-0.6915864212826445
 10
4610.31067603688
 20
434.5956495074934
 10
4744.036524554758
 20
434.5956495074934
 10
4744.036524554758
 20
484.9908498289052
 42
0.8385356209241956
 10
4565.520487345273
 20
466.194734073807
 10
4566.281548086175
 20
428.6396457748706
 42
0.3724986092688302
  0
LWPOLYLINE
  5
64C
330
630
100
AcDbEntity
  8
0
100
AcDbPolyline
 90
       11
 70
     1
 43
0.0
 10
4952.12864953795
 20
347.6920944223057
 10
4952.12864953795
 20
550.939053973135
 10
4900.702583921924
 20
550.939053973135
 10
4900.702583921924
 20
423.3947314994675
 42
-0.9999999999999998
 10
4826.420494325386
 20
423.3947314994675
 10
4826.420494325386
 20
550.939053973135
 10
4776.137219803171
 20
550.939053973135
 10
4776.137219803171
 20
409.8839220483551
 42
0.3536884495875767
 10
4826.420494325386
 20
347.6920944223061
 42
0.1880301856537018
 10
4900.702583921924
 20
376.6504784406334
 10
4900.702583921924
 20
347.6920944223057
  0
ELLIPSE
  5
64D
330
630
100
AcDbEntity
  8
0
100
AcDbEllipse
 10
5370.305539256016
 20
450.0980705261895
 30
0.0
 11
0.0
 21
60.517427349861
 31
0.0
210
0.0
220
0.0
230
1.0
 40
0.7992278408334073
 41
0.0
 42
6.283185307179586
  0
LWPOLYLINE
  5
64E
330
630
100
AcDbEntity
  8
0
100
AcDbPolyline
 90
       21
 70
     0
 43
0.0
 10
5270.995752594354
 20
434.5956495074934
 10
5271.250994801711
 20
464.9549698921
 10
5279.030549681301
 20
497.2427262477858
 10
5295.188059233591
 20
522.0564631350161
 10
5317.329846553719
 20
538.7982641616754
 10
5342.512262247637
 20
549.643559960672
 10
5371.236742675195
 20
550.540441005547
 10
5403.252569656466
 20
547.251875022107
 10
5436.166035193615
 20
529.6131929505727
 10
5460.701530511578
 20
500.9129672310864
 10
5471.772431944886
 20
471.6148186627824
 10
5471.18419955363
 20
421.2731110174381
 10
5457.420382452689
 20
391.6760042530768
 10
5442.459719126073
 20
370.4497980020451
 10
5409.546253588924
 20
353.7079969753859
 10
5385.893674304582
 20
347.65866162158
 10
5340.413253438655
 20
349.1534655152709
 10
5304.507649017585
 20
367.6890286316793
 10
5283.861931139417
 20
394.2965276086579
 10
5273.218262688221
 20
416.3918769146221
 10
5270.995752594354
 20
434.5956495074934
  0
LWPOLYLINE
  5
64F
330
630
100
AcDbEntity
  8
0
100
AcDbPolyline
 90
        6
 70
     1
 43
0.0
 10
6048.320504069488
 20
611.6993190578532
 10
6019.09780540469
 20
611.6993190578532
 10
6019.09780540469
 20
347.6920944223057
 10
6148.625452393782
 20
347.6920944223057
 10
6148.625452393782
 20
374.2439947420717
 10
6048.320504069488
 20
374.2439947420717
  0
LWPOLYLINE
  5
650
330
630
100
AcDbEntity
  8
0
100
AcDbPolyline
 90
       17
 70
     1
 43
0.0
 10
5846.034323113083
 20
410.6866723271091
 10
5846.034323113083
 20
484.7185944186216
 10
5856.507135683001
 20
506.1522706328251
 10
5875.712378353194
 20
521.8809764430662
 10
5894.917621023381
 20
525.9704381458523
 10
5916.011886115986
 20
525.9704381458523
 10
5934.587449463208
 20
512.4437516655816
 10
5945.606845388357
 20
490.108987865431
 10
5951.903638618016
 20
455.8204094573738
 10
5951.903638618016
 20
430.0253314120418
 10
5946.563311847305
 20
393.1503533161968
 10
5933.969725387986
 20
378.0507949635612
 10
5916.338688798453
 20
367.9844291851723
 10
5889.577294252671
 20
369.2427241003834
 10
5874.464974955004
 20
375.2196281759861
 10
5855.88941160778
 20
394.0940777309552
 10
5848.648091620427
 20
404.7895974236516
  0
LWPOLYLINE
  5
651
330
630
100
AcDbEntity
  8
0
100
AcDbPolyline
 90
       18
 70
     1
 43
0.0
 10
5846.034323113083
 20
347.6920944223057
 10
5819.181017741997
 20
347.6920944223057
 10
5819.181017741997
 20
631.4978775682147
 10
5846.034323113083
 20
631.4978775682147
 10
5846.034323113083
 20
518.1610646012964
 10
5862.717661461778
 20
534.3592882895445
 10
5892.982581002372
 20
547.0176323458772
 10
5924.834377009727
 20
549.271867021438
 10
5959.009163976929
 20
526.6134610551307
 10
5975.317302920201
 20
499.9539020893077
 10
5982.903638618016
 20
458.6432449155761
 10
5982.903638618016
 20
427.7922308117841
 10
5971.688625298098
 20
386.6122650237057
 10
5947.496582949123
 20
358.0112852640395
 10
5923.883799303501
 20
347.6920944223057
 10
5882.970877974898
 20
347.6920944223057
 10
5856.968310208657
 20
360.7430834144652
 10
5846.034323113083
 20
372.1595120446112
  0
LWPOLYLINE
  5
652
330
630
100
AcDbEntity
  8
0
100
AcDbPolyline
 90
       16
 70
     1
 43
0.0
 10
5214.404569104983
 20
507.608489277939
 10
5214.404569104983
 20
404.3666362665571
 42
0.4133728864958651
 10
5233.152061041021
 20
385.6501906630874
 10
5264.752345997662
 20
385.6501906630874
 10
5264.752345997662
 20
348.8947131998848
 10
5214.404569104976
 20
348.8947131998848
 42
-0.336670892825908
 10
5164.836168649083
 20
404.3666362665573
 10
5164.836168649083
 20
507.608489277939
 10
5127.901635597762
 20
507.608489277939
 10
5127.901635597762
 20
545.6403662475522
 10
5164.836168649083
 20
545.6403662475522
 10
5164.836168649083
 20
581.6651278969185
 10
5214.404569104983
 20
598.5535972863845
 10
5214.404569104983
 20
545.6403662475522
 10
5265.236619036954
 20
545.6403662475522
 10
5265.236619036954
 20
507.608489277939
  0
LWPOLYLINE
  5
653
330
630
100
AcDbEntity
  8
0
100
AcDbPolyline
 90
       37
 70
     0
 43
0.0
 10
5029.887461987414
 20
547.0947382760169
 10
5046.149101903019
 20
552.0397581336347
 10
5088.924325377364
 20
549.9204620641694
 10
5113.670320115939
 20
545.6818699252389
 10
5108.721111840332
 20
502.942773416802
 10
5075.844304917199
 20
511.0667373786172
 10
5051.805333269506
 20
513.1860334480825
 10
5040.846397628459
 20
507.1813655557325
 10
5032.715569897416
 20
497.9977535591842
 10
5030.991996975765
 20
487.9527395724826
 10
5037.732638584465
 20
480.2343538401401
 10
5052.031161525324
 20
474.4917570077823
 10
5076.142393240003
 20
468.6091078616873
 10
5100.590284109287
 20
457.7311669795562
 10
5116.851939571377
 20
442.54289354736
 10
5124.982767302423
 20
409.3406228948142
 10
5118.61951284506
 20
390.6201914990761
 10
5108.367600294893
 20
370.4868982092621
 10
5080.086474555443
 20
352.826114848257
 10
5060.289672545987
 20
348.5875227093266
 10
5023.524207530051
 20
349.6471707440587
 10
4995.243066244114
 20
353.5325425669443
 10
4983.223580420268
 20
358.8307762839058
 10
4989.586850424115
 20
394.5055633219618
 10
5021.049611165494
 20
384.6155236067261
 10
5039.432335900215
 20
387.088033535535
 10
5058.875626364232
 20
393.092701427885
 10
5065.592392367034
 20
404.7488168965401
 10
5066.891489865961
 20
415.0267796875403
 10
5048.409545422757
 20
429.8271300439719
 10
5023.514910731417
 20
438.3877607329131
 10
5001.069674668681
 20
449.889891354969
 10
4985.056060273051
 20
465.5753168654664
 10
4979.334937873951
 20
508.5942274498084
 10
4994.182531607799
 20
529.4339484583105
 10
5007.969575158841
 20
538.2643465955143
 10
5029.887461987414
 20
547.0947382760169
  0
LWPOLYLINE
  5
654
330
630
100
AcDbEntity
  8
0
100
AcDbPolyline
 90
       10
 70
     1
 43
0.0
 10
5531.887397500348
 20
497.5787652809549
 10
5531.887397500348
 20
587.7166952533134
 10
5630.14034958936
 20
587.7166952533134
 10
5630.14034958936
 20
611.6993190578532
 10
5502.397143811271
 20
611.6993190578532
 10
5502.397143811271
 20
348.8947131998848
 10
5531.887397500348
 20
348.8947131998848
 10
5531.887397500348
 20
473.8198016187725
 10
5624.864727293436
 20
473.8198016187725
 10
5624.864727293436
 20
497.5787652809549
  0
LWPOLYLINE
  5
655
330
630
100
AcDbEntity
  8
0
100
AcDbPolyline
 90
       14
 70
     1
 43
0.0
 10
5755.573471917877
 20
410.5231395199708
 10
5755.573471917877
 20
446.4792161862094
 10
5727.367855460987
 20
447.7762826104617
 10
5702.380548166526
 20
445.0526973844326
 10
5683.450758135506
 20
438.6976630381305
 10
5669.215571578664
 20
430.6782137046156
 10
5662.552285487745
 20
416.3037300247997
 10
5659.800666288927
 20
401.6888956290695
 10
5663.889500935628
 20
386.2552417104362
 10
5672.370046869524
 20
375.8148262967406
 10
5685.393726864383
 20
369.0058600033162
 10
5705.383585137137
 20
368.5519280561948
 10
5721.587469857205
 20
375.6635134954659
 10
5732.339590594824
 20
384.893445869071
  0
LWPOLYLINE
  5
656
330
630
100
AcDbEntity
  8
0
100
AcDbPolyline
 90
       35
 70
     1
 43
0.0
 10
5755.573471917877
 20
470.2966408904478
 10
5755.573471917877
 20
493.4309645608006
 10
5748.446449695686
 20
509.9618666060941
 10
5737.952509451279
 20
522.3886410606474
 10
5712.689283123069
 20
528.2136899720435
 10
5692.867373538706
 20
526.2720048493438
 10
5669.158811358233
 20
518.8936091311289
 10
5655.343830771824
 20
507.921734829542
 10
5655.343830771824
 20
534.7036716010116
 10
5669.917681979965
 20
541.4857628826348
 10
5679.068001624251
 20
545.1428063679277
 10
5704.559916761708
 20
548.9950165715526
 10
5737.501070590446
 20
546.7093700428586
 10
5754.581668296218
 20
539.7000458430411
 10
5765.409547060179
 20
529.033684614632
 10
5774.446999216015
 20
511.0680868292456
 10
5777.212548066302
 20
502.0494434944262
 10
5777.212548066302
 20
347.6920944223057
 10
5755.573471917877
 20
347.6920944223057
 10
5755.573471917877
 20
377.0401509398196
 10
5745.928742925414
 20
367.2299313233025
 10
5731.035597987549
 20
354.7788409306395
 10
5714.014869799412
 20
350.3754092006475
 10
5696.53822536247
 20
348.8569866926164
 10
5676.630032780736
 20
350.6790937022533
 10
5659.001421443023
 20
354.4751564290336
 10
5645.93192595389
 20
364.1930798505382
 10
5633.470313614329
 20
381.3512864747991
 10
5629.519080915328
 20
398.2058085974541
 10
5631.950613513633
 20
427.2077366111652
 10
5638.941261960518
 20
438.2922402898985
 10
5663.255670700898
 20
455.2412304132121
 10
5684.227647134525
 20
462.9851981175743
 10
5707.023273016883
 20
466.9331095518591
 10
5733.618164697469
 20
469.6662700663154
  0
LWPOLYLINE
  5
657
330
630
100
AcDbEntity
  8
0
100
AcDbPolyline
 90
       17
 70
     1
 43
0.0
 10
6377.983351303265
 20
410.6866723271091
 10
6377.983351303265
 20
484.7185944186216
 10
6388.456163873183
 20
506.1522706328251
 10
6407.661406543375
 20
521.8809764430662
 10
6426.866649213564
 20
525.9704381458523
 10
6447.960914306168
 20
525.9704381458523
 10
6466.536477653389
 20
512.4437516655816
 10
6477.555873578538
 20
490.108987865431
 10
6483.852666808198
 20
455.8204094573738
 10
6483.852666808198
 20
430.0253314120418
 10
6478.512340037487
 20
393.1503533161968
 10
6465.918753578169
 20
378.0507949635612
 10
6448.287716988634
 20
367.9844291851723
 10
6421.526322442852
 20
369.2427241003834
 10
6406.414003145186
 20
375.2196281759861
 10
6387.838439797961
 20
394.0940777309552
 10
6380.597119810609
 20
404.7895974236516
  0
LWPOLYLINE
  5
658
330
630
100
AcDbEntity
  8
0
100
AcDbPolyline
 90
       18
 70
     1
 43
0.0
 10
6377.983351303265
 20
347.6920944223057
 10
6351.13004593218
 20
347.6920944223057
 10
6351.13004593218
 20
631.4978775682147
 10
6377.983351303265
 20
631.4978775682147
 10
6377.983351303265
 20
518.1610646012964
 10
6394.66668965196
 20
534.3592882895445
 10
6424.931609192554
 20
547.0176323458772
 10
6456.783405199908
 20
549.271867021438
 10
6490.95819216711
 20
526.6134610551307
 10
6507.266331110383
 20
499.9539020893077
 10
6514.852666808199
 20
458.6432449155761
 10
6514.852666808199
 20
427.7922308117841
 10
6503.63765348828
 20
386.6122650237057
 10
6479.445611139304
 20
358.0112852640395
 10
6455.832827493683
 20
347.6920944223057
 10
6414.919906165081
 20
347.6920944223057
 10
6388.917338398838
 20
360.7430834144652
 10
6377.983351303265
 20
372.1595120446112
  0
LWPOLYLINE
  5
659
330
630
100
AcDbEntity
  8
0
100
AcDbPolyline
 90
       14
 70
     1
 43
0.0
 10
6287.522500108058
 20
410.5231395199708
 10
6287.522500108058
 20
446.4792161862094
 10
6259.316883651169
 20
447.7762826104617
 10
6234.329576356707
 20
445.0526973844326
 10
6215.399786325688
 20
438.6976630381305
 10
6201.164599768847
 20
430.6782137046156
 10
6194.501313677927
 20
416.3037300247997
 10
6191.749694479109
 20
401.6888956290695
 10
6195.838529125809
 20
386.2552417104362
 10
6204.319075059706
 20
375.8148262967406
 10
6217.342755054564
 20
369.0058600033162
 10
6237.332613327319
 20
368.5519280561948
 10
6253.536498047385
 20
375.6635134954659
 10
6264.288618785005
 20
384.893445869071
  0
LWPOLYLINE
  5
65A
330
630
100
AcDbEntity
  8
0
100
AcDbPolyline
 90
       35
 70
     1
 43
0.0
 10
6287.522500108058
 20
470.2966408904478
 10
6287.522500108058
 20
493.4309645608006
 10
6280.395477885868
 20
509.9618666060941
 10
6269.901537641461
 20
522.3886410606474
 10
6244.63831131325
 20
528.2136899720435
 10
6224.816401728887
 20
526.2720048493438
 10
6201.107839548415
 20
518.8936091311289
 10
6187.292858962006
 20
507.921734829542
 10
6187.292858962006
 20
534.7036716010116
 10
6201.866710170147
 20
541.4857628826348
 10
6211.017029814433
 20
545.1428063679277
 10
6236.508944951889
 20
548.9950165715526
 10
6269.450098780628
 20
546.7093700428586
 10
6286.5306964864
 20
539.7000458430411
 10
6297.35857525036
 20
529.033684614632
 10
6306.396027406197
 20
511.0680868292456
 10
6309.161576256483
 20
502.0494434944262
 10
6309.161576256483
 20
347.6920944223057
 10
6287.522500108058
 20
347.6920944223057
 10
6287.522500108058
 20
377.0401509398196
 10
6277.877771115596
 20
367.2299313233025
 10
6262.984626177731
 20
354.7788409306395
 10
6245.963897989593
 20
350.3754092006475
 10
6228.487253552652
 20
348.8569866926164
 10
6208.579060970919
 20
350.6790937022533
 10
6190.950449633205
 20
354.4751564290336
 10
6177.880954144072
 20
364.1930798505382
 10
6165.419341804511
 20
381.3512864747991
 10
6161.46810910551
 20
398.2058085974541
 10
6163.899641703814
 20
427.2077366111652
 10
6170.890290150699
 20
438.2922402898985
 10
6195.204698891081
 20
455.2412304132121
 10
6216.176675324707
 20
462.9851981175743
 10
6238.972301207065
 20
466.9331095518591
 10
6265.567192887651
 20
469.6662700663154
  0
LWPOLYLINE
  5
65B
330
630
100
AcDbEntity
  8
0
100
AcDbPolyline
 90
        4
 70
     1
 43
0.0
 10
4253.356047693501
 20
614.4472073085889
 10
4049.614917750641
 20
614.4472073085889
 10
4049.614917750641
 20
428.8854394902082
 42
0.9999999999999998
 10
4253.356047693501
 20
428.8854394902082
  0
LWPOLYLINE
  5
65C
330
630
100
AcDbEntity
  8
0
100
AcDbPolyline
 90
        4
 70
     1
 43
0.0
 10
4324.390227618245
 20
276.0104199009811
 10
4337.949997090269
 20
276.0104199009811
 10
4337.949997090269
 20
152.7543178140167
 10
4324.390227618245
 20
152.7543178140167
  0
LWPOLYLINE
  5
65D
330
630
100
AcDbEntity
  8
0
100
AcDbPolyline
 90
       10
 70
     1
 43
0.0
 10
4377.000080411695
 20
231.1691028189247
 42
-0.7171551388456816
 10
4438.206238273887
 20
216.952688130029
 10
4438.206238273887
 20
154.9680560573351
 10
4425.189554197735
 20
154.9680560573351
 10
4425.189554197735
 20
216.9526881300289
 42
0.7524245620670911
 10
4377.000080411693
 20
216.9526881300289
 10
4377.000080411693
 20
154.137905023178
 10
4362.598639733434
 20
154.137905023178
 10
4362.598639733434
 20
242.6873831022849
 10
4377.000080411693
 20
242.6873831022849
  0
LWPOLYLINE
  5
65E
330
630
100
AcDbEntity
  8
0
100
AcDbPolyline
 90
       19
 70
     0
 43
0.0
 10
4471.706599204495
 20
194.1460169255879
 10
4472.751152053195
 20
212.4103985760894
 10
4477.799873385768
 20
223.8908659352556
 10
4481.978115873523
 20
230.5008302296146
 10
4489.464137550712
 20
232.414241456142
 10
4494.164648689577
 20
233.6318720648705
 10
4506.525286602485
 20
231.3705673010918
 10
4514.881787124486
 20
227.7176883883112
 10
4523.760540751108
 20
219.0203628704485
 10
4528.809262083683
 20
208.9314696602841
 10
4527.242409490908
 20
188.4057832460048
 10
4520.452777108166
 20
177.4471529643633
 10
4511.574007935058
 20
169.6195645179777
 10
4503.256917755094
 20
165.1001316875936
 10
4494.532680652952
 20
164.4463648269047
 10
4483.544952919812
 20
168.7498339032027
 10
4478.496247133727
 20
172.228762819007
 10
4474.143899549111
 20
179.0126771103423
 10
4471.706599204495
 20
194.1460169255879
  0
LWPOLYLINE
  5
65F
330
630
100
AcDbEntity
  8
0
100
AcDbPolyline
 90
       36
 70
     0
 43
0.0
 10
4465.852849733223
 20
114.271872838799
 10
4465.852849733223
 20
127.596671174404
 10
4472.233687266267
 20
127.3882875879599
 10
4480.374744585108
 20
127.0495561102352
 10
4495.666734621623
 20
126.7500813780525
 10
4507.328247058548
 20
126.7500813780525
 10
4515.689349340409
 20
129.9378065963847
 10
4523.940413594274
 20
137.3025399340795
 10
4528.273281431913
 20
150.2907956137924
 10
4528.803027942791
 20
170.6240529512051
 10
4524.644451759839
 20
166.2502897649228
 10
4509.870517276719
 20
156.9560421869864
 10
4500.8967279811
 20
156.1906324994652
 10
4491.922938685486
 20
156.1906324994652
 10
4481.635906623418
 20
158.705543587479
 10
4474.631965930991
 20
161.8765201219403
 10
4468.941268005015
 20
166.0316012827743
 10
4462.375085265732
 20
173.4669967624422
 10
4458.216493536292
 20
187.2443517677347
 10
4458.216493536292
 20
204.8487487539369
 10
4463.366919980359
 20
219.6614939661658
 10
4470.480292387827
 20
232.6734392839371
 10
4480.439013758281
 20
241.5303098975746
 10
4492.039273040318
 20
244.5919421909612
 10
4503.858426845407
 20
243.8265389601411
 10
4514.4737540526
 20
241.5303098975746
 10
4520.055020263535
 20
237.9219563988154
 10
4527.715582339184
 20
231.1426199088928
 10
4527.715582339184
 20
244.2492721252802
 10
4538.02386644763
 20
244.2492721252802
 10
4540.31908745658
 20
244.2492721252802
 10
4540.31908745658
 20
147.6909853568449
 10
4536.444918688739
 20
134.8133071482061
 10
4529.018237948661
 20
123.1546219123265
 10
4517.829665162728
 20
117.6326634859924
 10
4503.929660844314
 20
113.8700335599378
  0
LWPOLYLINE
  5
660
330
630
100
AcDbEntity
  8
0
100
AcDbPolyline
 90
        2
 70
     1
 43
0.0
 10
4623.471784321071
 20
205.353475572304
 10
4571.447287818966
 20
205.353475572304
 42
-0.9999999999999998
  0
LWPOLYLINE
  5
661
330
630
100
AcDbEntity
  8
0
100
AcDbPolyline
 90
       10
 70
     1
 43
0.0
 10
4666.720242829643
 20
231.1691028189244
 42
-0.7171551388456848
 10
4727.926400691834
 20
216.952688130029
 10
4727.926400691834
 20
154.9680560573351
 10
4714.909716615682
 20
154.9680560573351
 10
4714.909716615682
 20
216.9526881300289
 42
0.7524245620670902
 10
4666.72024282964
 20
216.9526881300289
 10
4666.72024282964
 20
154.137905023178
 10
4652.318802151381
 20
154.137905023178
 10
4652.318802151381
 20
242.6873831022849
 10
4666.72024282964
 20
242.6873831022849
  0
LWPOLYLINE
  5
662
330
630
100
AcDbEntity
  8
0
100
AcDbPolyline
 90
        7
 70
     1
 43
0.0
 10
4635.037934612792
 20
193.4117285396296
 10
4635.037934612792
 20
206.8076990966319
 42
0.8825348822803565
 10
4557.038847084368
 20
205.353475572304
 10
4557.038847084368
 20
177.5399494336663
 42
0.5594095257218115
 10
4625.225940977323
 20
156.9335484457038
 10
4618.867229556879
 20
170.2164184302493
 42
-0.7729925407141151
 10
4570.013163907985
 20
193.4117285396296
  0
LWPOLYLINE
  5
663
330
630
100
AcDbEntity
  8
0
100
AcDbPolyline
 90
        2
 70
     1
 43
0.0
 10
4850.664648495476
 20
213.6257564258658
 10
4798.640151993371
 20
213.6257564258658
 42
-0.9999999999999998
  0
LWPOLYLINE
  5
664
330
630
100
AcDbEntity
  8
0
100
AcDbPolyline
 90
        7
 70
     1
 43
0.0
 10
4862.230798787198
 20
201.6840093931914
 10
4862.230798787198
 20
215.0799799501937
 42
0.8825348822803565
 10
4784.231711258773
 20
213.6257564258658
 10
4784.231711258773
 20
185.8122302872281
 42
0.5594095257218115
 10
4852.418805151728
 20
165.2058292992656
 10
4846.060093731285
 20
178.4886992838111
 42
-0.7729925407141151
 10
4797.206028082389
 20
201.6840093931914
  0
LWPOLYLINE
  5
665
330
630
100
AcDbEntity
  8
0
100
AcDbPolyline
 90
       14
 70
     1
 43
0.0
 10
5023.263439876888
 20
183.2077494510737
 10
5023.263439876888
 20
199.3683684431343
 10
5010.586299786571
 20
199.95134073136
 10
4999.355643100314
 20
198.7272132065794
 10
4990.847564559635
 20
195.870914681427
 10
4984.449496484483
 20
192.2665374183549
 10
4981.454652838163
 20
185.8058616301308
 10
4980.217925319305
 20
179.2371591408732
 10
4982.05567028409
 20
172.3004345657878
 10
4985.867289470314
 20
167.6079433024683
 10
4991.720840518865
 20
164.54762303952
 10
5000.70537145782
 20
164.3436013017245
 10
5007.988279701205
 20
167.5399350892052
 10
5012.82086831231
 20
171.6883693524009
  0
LWPOLYLINE
  5
666
330
630
100
AcDbEntity
  8
0
100
AcDbPolyline
 90
       35
 70
     1
 43
0.0
 10
5023.263439876888
 20
210.0732161825067
 10
5023.263439876888
 20
220.4710411161326
 10
5020.060167958489
 20
227.9009287545664
 10
5015.343619721329
 20
233.4861979463209
 10
5003.988949994981
 20
236.1042921544573
 10
4995.079904342934
 20
235.2315931177472
 10
4984.423985350306
 20
231.9153402606416
 10
4978.214780722336
 20
226.9839824302914
 10
4978.214780722336
 20
239.0212433375575
 10
4984.765063135181
 20
242.0694845066114
 10
4988.877715102177
 20
243.7131590084713
 10
5000.335170033604
 20
245.444552062168
 10
5015.140718512283
 20
244.4172580377498
 10
5022.817669316506
 20
241.2668860203422
 10
5027.684307710369
 20
236.4728424030679
 10
5031.746230881386
 20
228.3981243666908
 10
5032.989219144212
 20
224.344654904152
 10
5032.989219144212
 20
154.9680560573351
 10
5023.263439876888
 20
154.9680560573351
 10
5023.263439876888
 20
168.1586709272365
 10
5018.928573423696
 20
163.7494239751119
 10
5012.23478302024
 20
158.153225876545
 10
5004.584740837685
 20
156.1740838498297
 10
4996.729785064095
 20
155.4916220826842
 10
4987.781959134131
 20
156.3105762032586
 10
4979.858701159341
 20
158.016733523116
 10
4973.984558132588
 20
162.3844975388274
 10
4968.38363089807
 20
170.0963300175386
 10
4966.607731742268
 20
177.6716701428209
 10
4967.700594911204
 20
190.7067160132407
 10
4970.842573028176
 20
195.6886956193833
 10
4981.770792458732
 20
203.306494808811
 10
4991.196740784528
 20
206.7870556252397
 10
5001.442336487027
 20
208.5614620238049
 10
5013.395529144129
 20
209.789893204667
  0
LWPOLYLINE
  5
667
330
630
100
AcDbEntity
  8
0
100
AcDbPolyline
 90
        4
 70
     1
 43
0.0
 10
4751.32462391852
 20
242.687828614693
 10
4765.212097769206
 20
242.687828614693
 10
4765.212097769206
 20
154.9680560573351
 10
4751.32462391852
 20
154.9680560573351
  0
LWPOLYLINE
  5
668
330
630
100
AcDbEntity
  8
0
100
AcDbPolyline
 90
        4
 70
     1
 43
0.0
 10
4751.32462391852
 20
281.8785995788594
 10
4765.212097769206
 20
281.8785995788594
 10
4765.212097769206
 20
259.7908498106426
 10
4751.32462391852
 20
259.7908498106426
  0
LWPOLYLINE
  5
669
330
630
100
AcDbEntity
  8
0
100
AcDbPolyline
 90
        4
 70
     1
 43
0.0
 10
4936.287510976013
 20
242.687828614693
 10
4950.174984826698
 20
242.687828614693
 10
4950.174984826698
 20
154.9680560573351
 10
4936.287510976013
 20
154.9680560573351
  0
LWPOLYLINE
  5
66A
330
630
100
AcDbEntity
  8
0
100
AcDbPolyline
 90
        4
 70
     1
 43
0.0
 10
4950.802114525956
 20
281.8785995788594
 10
4960.012567978141
 20
281.8785995788594
 10
4950.174984826698
 20
259.7908498106426
 10
4936.287510976013
 20
259.7908498106426
  0
LWPOLYLINE
  5
66B
330
630
100
AcDbEntity
  8
0
100
AcDbPolyline
 90
        8
 70
     1
 43
0.0
 10
4890.098387998714
 20
228.6844965976889
 10
4890.098387998714
 20
240.3641521137561
 10
4878.340518441488
 20
240.3641521137561
 10
4878.340518441488
 20
154.9680560573351
 10
4890.098387998714
 20
154.9680560573351
 10
4890.098387998714
 20
218.3294958025426
 42
-0.2157604086981451
 10
4921.570507724671
 20
232.5734637168389
 10
4921.570507724671
 20
242.1879572359066
 42
0.2621551455826312
  0
ENDBLK
  5
66E
330
630
100
AcDbEntity
  8
0
100
AcDbBlockEnd
  0
ENDSEC
  0
SECTION
  2
ENTITIES
  0
LINE
  5
3DF
330
70
100
AcDbEntity
  8
corte interior
100
AcDbLine
 10
1802.152424859929
 20
137.9606514326318
 30
0.0
 11
1753.952424859928
 21
137.9606514326318
 31
0.0
  0
LINE
  5
3E0
330
70
100
AcDbEntity
  8
corte interior
100
AcDbLine
 10
1802.152424859929
 20
87.96065143263183
 30
0.0
 11
1753.952424859928
 21
87.96065143263183
 31
0.0
  0
LWPOLYLINE
  5
3E1
330
70
100
AcDbEntity
  8
0
 62
     2
100
AcDbPolyline
 90
        4
 70
     1
 43
0.0
 10
1753.952424859928
 20
437.9606514326318
 10
1802.152424859929
 20
437.9606514326318
 10
1802.152424859929
 20
37.96065143263184
 10
1753.952424859928
 20
37.96065143263184
  0
LWPOLYLINE
  5
3E2
330
70
100
AcDbEntity
  8
0
 62
     2
100
AcDbPolyline
 90
        4
 70
     1
 43
0.0
 10
3828.947842516922
 20
581.1533987233174
 10
4212.947842516921
 20
581.1533987233174
 10
4212.947842516921
 20
21.15339872331742
 10
3828.947842516922
 20
21.15339872331742
  0
LWPOLYLINE
  5
3E3
330
70
100
AcDbEntity
  8
0
 62
     6
100
AcDbPolyline
 90
        4
 70
     1
 43
0.0
 10
950.6485410981929
 20
0.0000018456051976
 10
950.6485410981929
 20
600.0000018456051
 10
1350.648541098193
 20
600.0000018456051
 10
1350.648541098193
 20
0.0000018456051976
  0
CIRCLE
  5
3E4
330
70
100
AcDbEntity
  8
corte interior
100
AcDbCircle
 10
1186.126438932351
 20
330.7116629286023
 30
0.0
 40
1.5
  0
CIRCLE
  5
3E5
330
70
100
AcDbEntity
  8
corte interior
100
AcDbCircle
 10
1111.005118588789
 20
330.7116629286023
 30
0.0
 40
1.5
  0
CIRCLE
  5
3E6
330
70
100
AcDbEntity
  8
corte interior
100
AcDbCircle
 10
1111.005118588789
 20
212.4116629286021
 30
0.0
 40
1.5
  0
CIRCLE
  5
3E7
330
70
100
AcDbEntity
  8
corte interior
100
AcDbCircle
 10
1186.126438932351
 20
212.4116629286021
 30
0.0
 40
1.5
  0
LWPOLYLINE
  5
3E8
330
70
100
AcDbEntity
  8
corte interior
100
AcDbPolyline
 90
        4
 70
     1
 43
0.0
 10
1061.965778760572
 20
284.7223231003808
 10
1067.965778760572
 20
284.7223231003808
 10
1067.965778760572
 20
309.7223231003808
 10
1061.965778760572
 20
309.7223231003808
  0
LWPOLYLINE
  5
3E9
330
70
100
AcDbEntity
  8
corte interior
100
AcDbPolyline
 90
        4
 70
     1
 43
0.0
 10
1061.965778760572
 20
190.5223231003818
 10
1067.965778760572
 20
190.5223231003818
 10
1067.965778760572
 20
215.5223231003819
 10
1061.965778760572
 20
215.5223231003819
  0
LWPOLYLINE
  5
3EA
330
70
100
AcDbEntity
  8
corte interior
100
AcDbPolyline
 90
        4
 70
     1
 43
0.0
 10
1061.965778760572
 20
96.32232310038205
 10
1067.965778760572
 20
96.32232310038205
 10
1067.965778760572
 20
121.322323100382
 10
1061.965778760572
 20
121.322323100382
  0
LWPOLYLINE
  5
3EB
330
70
100
AcDbEntity
  8
corte interior
100
AcDbPolyline
 90
        4
 70
     1
 43
0.0
 10
1061.965778760572
 20
378.9223231003806
 10
1067.965778760572
 20
378.9223231003806
 10
1067.965778760572
 20
403.9223231003806
 10
1061.965778760572
 20
403.9223231003806
  0
LWPOLYLINE
  5
3EC
330
70
100
AcDbEntity
  8
0
 62
     2
100
AcDbPolyline
 90
       32
 70
     0
 43
0.0
 10
1052.465778760568
 20
541.9223231003833
 10
1324.765778760569
 20
541.9223231003833
 10
1324.765778760569
 20
502.0223231003832
 10
1344.765778760569
 20
502.0223231003832
 10
1344.765778760569
 20
461.8223231003834
 10
1324.765778760569
 20
461.8223231003834
 10
1324.765778760569
 20
422.0223231003832
 10
1344.765778760569
 20
422.0223231003832
 10
1344.765778760569
 20
381.8223231003834
 10
1324.765778760569
 20
381.8223231003834
 10
1324.765778760569
 20
342.0223231003832
 10
1344.765778760569
 20
342.0223231003832
 10
1344.765778760569
 20
301.8223231003834
 10
1324.765778760569
 20
301.8223231003834
 10
1324.765778760569
 20
262.0223231003832
 10
1344.765778760569
 20
262.0223231003832
 10
1344.765778760569
 20
221.8223231003834
 10
1324.765778760569
 20
221.8223231003834
 10
1324.765778760569
 20
182.0223231003832
 10
1344.765778760569
 20
182.0223231003832
 10
1344.765778760569
 20
141.8223231003834
 10
1324.765778760569
 20
141.8223231003834
 10
1324.765778760569
 20
102.0223231003832
 10
1344.765778760569
 20
102.0223231003832
 10
1344.765778760569
 20
61.82232310038341
 10
1324.765778760569
 20
61.82232310038341
 10
1324.765778760569
 20
55.22232310038259
 10
1309.665778760572
 20
55.22232310038259
 10
1309.665778760572
 20
43.22232310038259
 10
1324.765778760569
 20
43.22232310038259
 10
1324.765778760569
 20
36.7223231003826
 10
1052.465778760568
 20
36.7223231003826
  0
LWPOLYLINE
  5
3ED
330
70
100
AcDbEntity
  8
corte interior
100
AcDbPolyline
 90
        4
 70
     1
 43
0.0
 10
1099.565778760574
 20
43.22232310038259
 10
1099.565778760574
 20
55.22232310038259
 10
1149.565778760574
 20
55.22232310038259
 10
1149.565778760574
 20
43.22232310038259
  0
LWPOLYLINE
  5
3EE
330
70
100
AcDbEntity
  8
corte interior
100
AcDbPolyline
 90
        4
 70
     1
 43
0.0
 10
1204.615778760573
 20
43.22232310038259
 10
1204.615778760573
 20
55.22232310038259
 10
1254.615778760573
 20
55.22232310038259
 10
1254.615778760573
 20
43.22232310038259
  0
LWPOLYLINE
  5
3EF
330
70
100
AcDbEntity
  8
0
 62
     2
100
AcDbPolyline
 90
       14
 70
     0
 43
0.0
 10
1052.465778760568
 20
36.7223231003826
 10
1052.465778760568
 20
16.72232310038441
 10
1027.465778760568
 20
16.72232310038441
 10
1002.465778760568
 20
41.72232310038441
 10
1027.465778760568
 20
41.72232310038441
 10
1027.465778760568
 20
153.0223231003837
 10
959.3157787605667
 20
221.1723231003833
 10
959.3157787605667
 20
357.4723231003826
 10
1027.465778760568
 20
425.6223231003822
 10
1027.465778760568
 20
536.9223231003815
 10
1002.465778760568
 20
536.9223231003815
 10
1027.465778760568
 20
561.9223231003815
 10
1052.465778760568
 20
561.9223231003815
 10
1052.465778760568
 20
541.9223231003833
  0
LWPOLYLINE
  5
3F0
330
70
100
AcDbEntity
  8
corte interior
100
AcDbPolyline
 90
        4
 70
     1
 43
0.0
 10
1027.465778760568
 20
188.3776621597097
 10
984.3157787605667
 20
231.5276621597112
 10
984.3157787605667
 20
347.1169840410547
 10
1027.465778760568
 20
390.2669840410561
  0
LWPOLYLINE
  5
3F1
330
70
100
AcDbEntity
  8
0
 62
     6
100
AcDbPolyline
 90
        4
 70
     1
 43
0.0
 10
1426.38483227765
 20
0.0000018456051976
 10
1426.38483227765
 20
600.0000018456051
 10
1826.38483227765
 20
600.0000018456051
 10
1826.38483227765
 20
0.0000018456051976
  0
CIRCLE
  5
3F2
330
70
100
AcDbEntity
  8
corte interior
100
AcDbCircle
 10
1665.933171854321
 20
330.7116629286023
 30
0.0
 40
1.5
  0
CIRCLE
  5
3F3
330
70
100
AcDbEntity
  8
corte interior
100
AcDbCircle
 10
1590.81185151076
 20
330.7116629286023
 30
0.0
 40
1.5
  0
CIRCLE
  5
3F4
330
70
100
AcDbEntity
  8
corte interior
100
AcDbCircle
 10
1590.81185151076
 20
212.4116629286021
 30
0.0
 40
1.5
  0
CIRCLE
  5
3F5
330
70
100
AcDbEntity
  8
corte interior
100
AcDbCircle
 10
1665.933171854321
 20
212.4116629286021
 30
0.0
 40
1.5
  0
LWPOLYLINE
  5
3F6
330
70
100
AcDbEntity
  8
0
 62
     2
100
AcDbPolyline
 90
       32
 70
     1
 43
0.0
 10
1724.472511682539
 20
36.7223231003826
 10
1432.172511682536
 20
36.7223231003826
 10
1432.172511682536
 20
43.22232310038259
 10
1467.272511682542
 20
43.22232310038259
 10
1467.272511682542
 20
55.22232310038259
 10
1432.172511682536
 20
55.22232310038259
 10
1432.172511682536
 20
62.02232310038323
 10
1452.172511682536
 20
62.02232310038323
 10
1452.172511682536
 20
101.8223231003834
 10
1432.172511682536
 20
101.8223231003834
 10
1432.172511682536
 20
142.0223231003832
 10
1452.172511682536
 20
142.0223231003832
 10
1452.172511682536
 20
181.8223231003834
 10
1432.172511682536
 20
181.8223231003834
 10
1432.172511682536
 20
222.0223231003832
 10
1452.172511682536
 20
222.0223231003832
 10
1452.172511682536
 20
261.8223231003834
 10
1432.172511682536
 20
261.8223231003834
 10
1432.172511682536
 20
302.0223231003833
 10
1452.172511682536
 20
302.0223231003833
 10
1452.172511682536
 20
341.8223231003834
 10
1432.172511682536
 20
341.8223231003834
 10
1432.172511682536
 20
382.0223231003832
 10
1452.172511682536
 20
382.0223231003832
 10
1452.172511682536
 20
421.8223231003833
 10
1432.172511682536
 20
421.8223231003833
 10
1432.172511682536
 20
462.0223231003832
 10
1452.172511682536
 20
462.0223231003832
 10
1452.172511682536
 20
501.8223231003834
 10
1432.172511682536
 20
501.8223231003834
 10
1432.172511682536
 20
541.9223231003833
 10
1724.472511682539
 20
541.9223231003833
  0
LWPOLYLINE
  5
3F7
330
70
100
AcDbEntity
  8
corte interior
100
AcDbPolyline
 90
        4
 70
     1
 43
0.0
 10
1522.322511682541
 20
43.22232310038259
 10
1522.322511682541
 20
55.22232310038259
 10
1572.322511682541
 20
55.22232310038259
 10
1572.322511682541
 20
43.22232310038259
  0
LWPOLYLINE
  5
3F8
330
70
100
AcDbEntity
  8
corte interior
100
AcDbPolyline
 90
        4
 70
     1
 43
0.0
 10
1627.372511682541
 20
43.22232310038259
 10
1627.372511682541
 20
55.22232310038259
 10
1677.372511682541
 20
55.22232310038259
 10
1677.372511682541
 20
43.22232310038259
  0
LWPOLYLINE
  5
3F9
330
70
100
AcDbEntity
  8
corte interior
100
AcDbPolyline
 90
        4
 70
     1
 43
0.0
 10
1714.972511682543
 20
284.7223231003808
 10
1708.972511682542
 20
284.7223231003808
 10
1708.972511682542
 20
309.7223231003808
 10
1714.972511682543
 20
309.7223231003808
  0
LWPOLYLINE
  5
3FA
330
70
100
AcDbEntity
  8
corte interior
100
AcDbPolyline
 90
        4
 70
     1
 43
0.0
 10
1714.972511682543
 20
190.5223231003818
 10
1708.972511682542
 20
190.5223231003818
 10
1708.972511682542
 20
215.5223231003819
 10
1714.972511682543
 20
215.5223231003819
  0
LWPOLYLINE
  5
3FB
330
70
100
AcDbEntity
  8
corte interior
100
AcDbPolyline
 90
        4
 70
     1
 43
0.0
 10
1714.972511682543
 20
96.32232310038205
 10
1708.972511682542
 20
96.32232310038205
 10
1708.972511682542
 20
121.322323100382
 10
1714.972511682543
 20
121.322323100382
  0
LWPOLYLINE
  5
3FC
330
70
100
AcDbEntity
  8
corte interior
100
AcDbPolyline
 90
        4
 70
     1
 43
0.0
 10
1714.972511682543
 20
378.9223231003806
 10
1708.972511682542
 20
378.9223231003806
 10
1708.972511682542
 20
403.9223231003806
 10
1714.972511682543
 20
403.9223231003806
  0
LINE
  5
3FD
330
70
100
AcDbEntity
  8
corte interior
100
AcDbLine
 10
1052.465778760568
 20
541.9223231003833
 30
0.0
 11
1052.465778760568
 21
36.7223231003826
 31
0.0
  0
LWPOLYLINE
  5
3FE
330
70
100
AcDbEntity
  8
0
 62
     6
100
AcDbPolyline
 90
        4
 70
     1
 43
0.0
 10
3820.174780733809
 20
0.0000018456051976
 10
3820.174780733809
 20
600.0000018456051
 10
4220.174780733809
 20
600.0000018456051
 10
4220.174780733809
 20
0.0000018456051976
  0
LWPOLYLINE
  5
3FF
330
70
100
AcDbEntity
  8
0
 62
     6
100
AcDbPolyline
 90
        4
 70
     1
 43
0.0
 10
-0.0000044706512199
 20
0.0000018456053112
 10
-0.0000044706512199
 20
600.0000018456053
 10
399.9999955293488
 20
600.0000018456053
 10
399.9999955293488
 20
0.0000018456053112
  0
CIRCLE
  5
400
330
70
100
AcDbEntity
  8
corte interior
100
AcDbCircle
 10
235.4778933635071
 20
330.7116629286024
 30
0.0
 40
1.5
  0
CIRCLE
  5
401
330
70
100
AcDbEntity
  8
corte interior
100
AcDbCircle
 10
160.3565730199452
 20
330.7116629286024
 30
0.0
 40
1.5
  0
CIRCLE
  5
402
330
70
100
AcDbEntity
  8
corte interior
100
AcDbCircle
 10
160.3565730199452
 20
212.4116629286023
 30
0.0
 40
1.5
  0
CIRCLE
  5
403
330
70
100
AcDbEntity
  8
corte interior
100
AcDbCircle
 10
235.4778933635071
 20
212.4116629286023
 30
0.0
 40
1.5
  0
LWPOLYLINE
  5
404
330
70
100
AcDbEntity
  8
grabado
100
AcDbPolyline
 90
        4
 70
     1
 43
0.0
 10
247.4172331917261
 20
342.7723231003829
 10
247.4172331917261
 20
200.4723231003818
 10
148.4172331917261
 20
200.4723231003818
 10
148.4172331917261
 20
342.7723231003829
  0
LWPOLYLINE
  5
405
330
70
100
AcDbEntity
  8
corte interior
100
AcDbPolyline
 90
        4
 70
     1
 43
0.0
 10
111.3172331917276
 20
284.7223231003809
 10
117.3172331917276
 20
284.7223231003809
 10
117.3172331917276
 20
309.7223231003809
 10
111.3172331917276
 20
309.7223231003809
  0
LWPOLYLINE
  5
406
330
70
100
AcDbEntity
  8
corte interior
100
AcDbPolyline
 90
        4
 70
     1
 43
0.0
 10
111.3172331917276
 20
190.522323100382
 10
117.3172331917276
 20
190.522323100382
 10
117.3172331917276
 20
215.522323100382
 10
111.3172331917276
 20
215.522323100382
  0
LWPOLYLINE
  5
407
330
70
100
AcDbEntity
  8
corte interior
100
AcDbPolyline
 90
        4
 70
     1
 43
0.0
 10
111.3172331917276
 20
96.32232310038217
 10
117.3172331917276
 20
96.32232310038217
 10
117.3172331917276
 20
121.3223231003821
 10
111.3172331917276
 20
121.3223231003821
  0
LWPOLYLINE
  5
408
330
70
100
AcDbEntity
  8
corte interior
100
AcDbPolyline
 90
        4
 70
     1
 43
0.0
 10
111.3172331917276
 20
378.9223231003807
 10
117.3172331917276
 20
378.9223231003807
 10
117.3172331917276
 20
403.9223231003806
 10
111.3172331917276
 20
403.9223231003806
  0
LWPOLYLINE
  5
409
330
70
100
AcDbEntity
  8
0
 62
     2
100
AcDbPolyline
 90
       32
 70
     0
 43
0.0
 10
101.8172331917239
 20
541.9223231003834
 10
374.1172331917251
 20
541.9223231003834
 10
374.1172331917251
 20
502.0223231003833
 10
394.1172331917251
 20
502.0223231003833
 10
394.1172331917251
 20
461.8223231003835
 10
374.1172331917251
 20
461.8223231003835
 10
374.1172331917251
 20
422.0223231003833
 10
394.1172331917251
 20
422.0223231003833
 10
394.1172331917251
 20
381.8223231003835
 10
374.1172331917251
 20
381.8223231003835
 10
374.1172331917251
 20
342.0223231003833
 10
394.1172331917251
 20
342.0223231003833
 10
394.1172331917251
 20
301.8223231003835
 10
374.1172331917251
 20
301.8223231003835
 10
374.1172331917251
 20
262.0223231003834
 10
394.1172331917251
 20
262.0223231003834
 10
394.1172331917251
 20
221.8223231003835
 10
374.1172331917251
 20
221.8223231003835
 10
374.1172331917251
 20
182.0223231003833
 10
394.1172331917251
 20
182.0223231003833
 10
394.1172331917251
 20
141.8223231003835
 10
374.1172331917251
 20
141.8223231003835
 10
374.1172331917251
 20
102.0223231003833
 10
394.1172331917251
 20
102.0223231003833
 10
394.1172331917251
 20
61.82232310038353
 10
374.1172331917251
 20
61.82232310038353
 10
374.1172331917251
 20
55.22232310038271
 10
359.0172331917283
 20
55.22232310038271
 10
359.0172331917283
 20
43.22232310038271
 10
374.1172331917251
 20
43.22232310038271
 10
374.1172331917251
 20
36.72232310038271
 10
101.8172331917239
 20
36.72232310038271
  0
LWPOLYLINE
  5
40A
330
70
100
AcDbEntity
  8
corte interior
100
AcDbPolyline
 90
        4
 70
     1
 43
0.0
 10
148.9172331917298
 20
43.22232310038271
 10
148.9172331917298
 20
55.22232310038271
 10
198.9172331917298
 20
55.22232310038271
 10
198.9172331917298
 20
43.22232310038271
  0
LWPOLYLINE
  5
40B
330
70
100
AcDbEntity
  8
corte interior
100
AcDbPolyline
 90
        4
 70
     1
 43
0.0
 10
253.9672331917291
 20
43.22232310038271
 10
253.9672331917291
 20
55.22232310038271
 10
303.9672331917291
 20
55.22232310038271
 10
303.9672331917291
 20
43.22232310038271
  0
LWPOLYLINE
  5
40C
330
70
100
AcDbEntity
  8
0
 62
     2
100
AcDbPolyline
 90
       14
 70
     0
 43
0.0
 10
101.8172331917239
 20
36.72232310038271
 10
101.8172331917239
 20
16.72232310038453
 10
76.81723319172397
 20
16.72232310038453
 10
51.81723319172397
 20
41.72232310038452
 10
76.81723319172397
 20
41.72232310038452
 10
76.81723319172397
 20
153.0223231003838
 10
8.667233191722516
 20
221.1723231003834
 10
8.667233191722516
 20
357.4723231003827
 10
76.81723319172397
 20
425.6223231003823
 10
76.81723319172397
 20
536.9223231003815
 10
51.81723319172397
 20
536.9223231003815
 10
76.81723319172397
 20
561.9223231003815
 10
101.8172331917239
 20
561.9223231003815
 10
101.8172331917239
 20
541.9223231003834
  0
LWPOLYLINE
  5
40D
330
70
100
AcDbEntity
  8
corte interior
100
AcDbPolyline
 90
        4
 70
     1
 43
0.0
 10
76.81723319172397
 20
188.3776621597099
 10
33.66723319172252
 20
231.5276621597113
 10
33.66723319172252
 20
347.1169840410548
 10
76.81723319172397
 20
390.2669840410563
  0
LWPOLYLINE
  5
40E
330
70
100
AcDbEntity
  8
0
 62
     6
100
AcDbPolyline
 90
        4
 70
     1
 43
0.0
 10
475.7362867088058
 20
0.0000018456053112
 10
475.7362867088058
 20
600.0000018456053
 10
875.7362867088058
 20
600.0000018456053
 10
875.7362867088058
 20
0.0000018456053112
  0
CIRCLE
  5
40F
330
70
100
AcDbEntity
  8
corte interior
100
AcDbCircle
 10
715.2846262854772
 20
330.7116629286024
 30
0.0
 40
1.5
  0
CIRCLE
  5
410
330
70
100
AcDbEntity
  8
corte interior
100
AcDbCircle
 10
640.1633059419155
 20
330.7116629286024
 30
0.0
 40
1.5
  0
CIRCLE
  5
411
330
70
100
AcDbEntity
  8
corte interior
100
AcDbCircle
 10
640.1633059419155
 20
212.4116629286023
 30
0.0
 40
1.5
  0
CIRCLE
  5
412
330
70
100
AcDbEntity
  8
corte interior
100
AcDbCircle
 10
715.2846262854772
 20
212.4116629286023
 30
0.0
 40
1.5
  0
LWPOLYLINE
  5
413
330
70
100
AcDbEntity
  8
grabado
100
AcDbPolyline
 90
        4
 70
     1
 43
0.0
 10
727.2239661136964
 20
342.7723231003829
 10
727.2239661136964
 20
200.4723231003818
 10
628.2239661136964
 20
200.4723231003818
 10
628.2239661136964
 20
342.7723231003829
  0
LWPOLYLINE
  5
414
330
70
100
AcDbEntity
  8
0
 62
     2
100
AcDbPolyline
 90
       32
 70
     0
 43
0.0
 10
773.8239661136949
 20
36.72232310038271
 10
481.523966113692
 20
36.72232310038271
 10
481.523966113692
 20
43.22232310038271
 10
516.6239661136978
 20
43.22232310038271
 10
516.6239661136978
 20
55.22232310038271
 10
481.523966113692
 20
55.22232310038271
 10
481.523966113692
 20
62.02232310038334
 10
501.523966113692
 20
62.02232310038334
 10
501.523966113692
 20
101.8223231003835
 10
481.523966113692
 20
101.8223231003835
 10
481.523966113692
 20
142.0223231003833
 10
501.523966113692
 20
142.0223231003833
 10
501.523966113692
 20
181.8223231003835
 10
481.523966113692
 20
181.8223231003835
 10
481.523966113692
 20
222.0223231003834
 10
501.523966113692
 20
222.0223231003834
 10
501.523966113692
 20
261.8223231003835
 10
481.523966113692
 20
261.8223231003835
 10
481.523966113692
 20
302.0223231003833
 10
501.523966113692
 20
302.0223231003833
 10
501.523966113692
 20
341.8223231003835
 10
481.523966113692
 20
341.8223231003835
 10
481.523966113692
 20
382.0223231003833
 10
501.523966113692
 20
382.0223231003833
 10
501.523966113692
 20
421.8223231003835
 10
481.523966113692
 20
421.8223231003835
 10
481.523966113692
 20
462.0223231003833
 10
501.523966113692
 20
462.0223231003833
 10
501.523966113692
 20
501.8223231003835
 10
481.523966113692
 20
501.8223231003835
 10
481.523966113692
 20
541.9223231003834
 10
773.8239661136949
 20
541.9223231003834
  0
LWPOLYLINE
  5
415
330
70
100
AcDbEntity
  8
corte interior
100
AcDbPolyline
 90
        4
 70
     1
 43
0.0
 10
571.6739661136971
 20
43.22232310038271
 10
571.6739661136971
 20
55.22232310038271
 10
621.6739661136971
 20
55.22232310038271
 10
621.6739661136971
 20
43.22232310038271
  0
LWPOLYLINE
  5
416
330
70
100
AcDbEntity
  8
corte interior
100
AcDbPolyline
 90
        4
 70
     1
 43
0.0
 10
676.7239661136963
 20
43.22232310038271
 10
676.7239661136963
 20
55.22232310038271
 10
726.7239661136963
 20
55.22232310038271
 10
726.7239661136963
 20
43.22232310038271
  0
LWPOLYLINE
  5
417
330
70
100
AcDbEntity
  8
corte interior
100
AcDbPolyline
 90
        4
 70
     1
 43
0.0
 10
764.3239661136986
 20
284.7223231003809
 10
758.3239661136985
 20
284.7223231003809
 10
758.3239661136985
 20
309.7223231003809
 10
764.3239661136986
 20
309.7223231003809
  0
LWPOLYLINE
  5
418
330
70
100
AcDbEntity
  8
corte interior
100
AcDbPolyline
 90
        4
 70
     1
 43
0.0
 10
764.3239661136986
 20
190.522323100382
 10
758.3239661136985
 20
190.522323100382
 10
758.3239661136985
 20
215.522323100382
 10
764.3239661136986
 20
215.522323100382
  0
LWPOLYLINE
  5
419
330
70
100
AcDbEntity
  8
corte interior
100
AcDbPolyline
 90
        4
 70
     1
 43
0.0
 10
764.3239661136986
 20
96.32232310038217
 10
758.3239661136985
 20
96.32232310038217
 10
758.3239661136985
 20
121.3223231003821
 10
764.3239661136986
 20
121.3223231003821
  0
LWPOLYLINE
  5
41A
330
70
100
AcDbEntity
  8
corte interior
100
AcDbPolyline
 90
        4
 70
     1
 43
0.0
 10
764.3239661136986
 20
378.9223231003807
 10
758.3239661136985
 20
378.9223231003807
 10
758.3239661136985
 20
403.9223231003806
 10
764.3239661136986
 20
403.9223231003806
  0
LWPOLYLINE
  5
41B
330
70
100
AcDbEntity
  8
0
 62
     2
100
AcDbPolyline
 90
       14
 70
     0
 43
0.0
 10
773.8239661136949
 20
36.72232310038271
 10
773.8239661136949
 20
19.41204996722899
 10
798.8239661136949
 20
19.41204996722899
 10
823.8239661136949
 20
44.41204996722899
 10
798.8239661136949
 20
44.41204996722899
 10
798.8239661136949
 20
155.7120499672282
 10
866.9739661136963
 20
223.8620499672279
 10
866.9739661136963
 20
360.1620499672272
 10
798.8239661136949
 20
428.3120499672268
 10
798.8239661136949
 20
539.612049967226
 10
823.8239661136949
 20
539.612049967226
 10
798.8239661136949
 20
564.612049967226
 10
773.8239661136949
 20
564.612049967226
 10
773.8239661136949
 20
541.9223231003834
  0
LWPOLYLINE
  5
41C
330
70
100
AcDbEntity
  8
corte interior
100
AcDbPolyline
 90
        4
 70
     1
 43
0.0
 10
798.8239661136949
 20
191.0673890265543
 10
841.9739661136963
 20
234.2173890265558
 10
841.9739661136963
 20
349.8067109078993
 10
798.8239661136949
 20
392.9567109079007
  0
LINE
  5
41D
330
70
100
AcDbEntity
  8
corte interior
100
AcDbLine
 10
773.8239661136949
 20
541.9223231003834
 30
0.0
 11
773.8239661136949
 21
36.72232310038271
 31
0.0
  0
LINE
  5
41E
330
70
100
AcDbEntity
  8
corte interior
100
AcDbLine
 10
101.8172331917239
 20
541.9223231003834
 30
0.0
 11
101.8172331917239
 21
36.72232310038271
 31
0.0
  0
LWPOLYLINE
  5
41F
330
70
100
AcDbEntity
  8
grabado
100
AcDbPolyline
 90
        4
 70
     0
 43
0.0
 10
501.523966113692
 20
481.9223231003834
 10
538.7239661136946
 20
481.9223231003834
 10
538.7239661136946
 20
61.72232310038271
 10
481.523966113692
 20
61.72232310038271
  0
LWPOLYLINE
  5
420
330
70
100
AcDbEntity
  8
grabado
100
AcDbPolyline
 90
        4
 70
     0
 43
0.0
 10
501.523966113692
 20
487.9223231003834
 10
544.7239661136945
 20
487.9223231003834
 10
544.7239661136945
 20
55.72232310038277
 10
481.523966113692
 20
55.72232310038271
  0
LWPOLYLINE
  5
421
330
70
100
AcDbEntity
  8
grabado
100
AcDbPolyline
 90
        4
 70
     0
 43
0.0
 10
374.1172331917251
 20
61.72232310038271
 10
336.9172331917261
 20
61.72232310038271
 10
336.9172331917261
 20
481.9223231003834
 10
394.1172331917251
 20
481.9223231003834
  0
LWPOLYLINE
  5
422
330
70
100
AcDbEntity
  8
grabado
100
AcDbPolyline
 90
        4
 70
     0
 43
0.0
 10
374.1172331917251
 20
55.72232310038271
 10
330.9172331917261
 20
55.72232310038271
 10
330.9172331917261
 20
487.9223231003833
 10
394.1172331917251
 20
487.9223231003834
  0
LWPOLYLINE
  5
423
330
70
100
AcDbEntity
  8
corte interior
100
AcDbPolyline
 90
        9
 70
     0
 43
0.0
 10
4016.447842516922
 20
531.1533987233174
 10
4016.447842516922
 20
556.1533987233174
 10
4025.447842516921
 20
556.1533987233174
 10
4025.447842516921
 20
531.1533987233174
 10
4051.197842516922
 20
531.1533987233174
 10
4051.197842516922
 20
61.15339872331742
 10
3990.697842516922
 20
61.15339872331742
 10
3990.697842516922
 20
531.1533987233174
 10
4016.447842516922
 20
531.1533987233174
  0
LWPOLYLINE
  5
424
330
70
100
AcDbEntity
  8
0
 62
     6
100
AcDbPolyline
 90
        4
 70
     1
 43
0.0
 10
1909.675369736543
 20
0.0000018456051976
 10
1909.675369736543
 20
600.0000018456051
 10
2309.675369736544
 20
600.0000018456051
 10
2309.675369736544
 20
0.0000018456051976
  0
LWPOLYLINE
  5
425
330
70
100
AcDbEntity
  8
corte interior
100
AcDbPolyline
 90
        4
 70
     1
 43
0.0
 10
2020.992607398923
 20
284.7223231003808
 10
2026.992607398923
 20
284.7223231003808
 10
2026.992607398923
 20
309.7223231003808
 10
2020.992607398923
 20
309.7223231003808
  0
LWPOLYLINE
  5
426
330
70
100
AcDbEntity
  8
corte interior
100
AcDbPolyline
 90
        4
 70
     1
 43
0.0
 10
2020.992607398923
 20
190.5223231003818
 10
2026.992607398923
 20
190.5223231003818
 10
2026.992607398923
 20
215.5223231003819
 10
2020.992607398923
 20
215.5223231003819
  0
LWPOLYLINE
  5
427
330
70
100
AcDbEntity
  8
corte interior
100
AcDbPolyline
 90
        4
 70
     1
 43
0.0
 10
2020.992607398923
 20
96.32232310038205
 10
2026.992607398923
 20
96.32232310038205
 10
2026.992607398923
 20
121.322323100382
 10
2020.992607398923
 20
121.322323100382
  0
LWPOLYLINE
  5
428
330
70
100
AcDbEntity
  8
corte interior
100
AcDbPolyline
 90
        4
 70
     1
 43
0.0
 10
2020.992607398923
 20
378.9223231003806
 10
2026.992607398923
 20
378.9223231003806
 10
2026.992607398923
 20
403.9223231003806
 10
2020.992607398923
 20
403.9223231003806
  0
LWPOLYLINE
  5
429
330
70
100
AcDbEntity
  8
0
 62
     2
100
AcDbPolyline
 90
       32
 70
     1
 43
0.0
 10
2011.492607398919
 20
541.9223231003833
 10
2283.79260739892
 20
541.9223231003833
 10
2283.79260739892
 20
502.0223231003832
 10
2303.79260739892
 20
502.0223231003832
 10
2303.79260739892
 20
461.8223231003834
 10
2283.79260739892
 20
461.8223231003834
 10
2283.79260739892
 20
422.0223231003832
 10
2303.79260739892
 20
422.0223231003832
 10
2303.79260739892
 20
381.8223231003834
 10
2283.79260739892
 20
381.8223231003834
 10
2283.79260739892
 20
342.0223231003832
 10
2303.79260739892
 20
342.0223231003832
 10
2303.79260739892
 20
301.8223231003834
 10
2283.79260739892
 20
301.8223231003834
 10
2283.79260739892
 20
262.0223231003832
 10
2303.79260739892
 20
262.0223231003832
 10
2303.79260739892
 20
221.8223231003834
 10
2283.79260739892
 20
221.8223231003834
 10
2283.79260739892
 20
182.0223231003832
 10
2303.79260739892
 20
182.0223231003832
 10
2303.79260739892
 20
141.8223231003834
 10
2283.79260739892
 20
141.8223231003834
 10
2283.79260739892
 20
102.0223231003832
 10
2303.79260739892
 20
102.0223231003832
 10
2303.79260739892
 20
61.82232310038341
 10
2283.79260739892
 20
61.82232310038341
 10
2283.79260739892
 20
55.22232310038259
 10
2268.692607398923
 20
55.22232310038259
 10
2268.692607398923
 20
43.22232310038259
 10
2283.79260739892
 20
43.22232310038259
 10
2283.79260739892
 20
36.7223231003826
 10
2011.492607398919
 20
36.7223231003826
  0
LWPOLYLINE
  5
42A
330
70
100
AcDbEntity
  8
corte interior
100
AcDbPolyline
 90
        4
 70
     1
 43
0.0
 10
2058.592607398925
 20
43.22232310038259
 10
2058.592607398925
 20
55.22232310038259
 10
2108.592607398925
 20
55.22232310038259
 10
2108.592607398925
 20
43.22232310038259
  0
LWPOLYLINE
  5
42B
330
70
100
AcDbEntity
  8
corte interior
100
AcDbPolyline
 90
        4
 70
     1
 43
0.0
 10
2163.642607398924
 20
43.22232310038259
 10
2163.642607398924
 20
55.22232310038259
 10
2213.642607398924
 20
55.22232310038259
 10
2213.642607398924
 20
43.22232310038259
  0
LWPOLYLINE
  5
42C
330
70
100
AcDbEntity
  8
0
 62
     6
100
AcDbPolyline
 90
        4
 70
     1
 43
0.0
 10
2385.411660916001
 20
0.0000018456051976
 10
2385.411660916001
 20
600.0000018456051
 10
2785.411660916001
 20
600.0000018456051
 10
2785.411660916001
 20
0.0000018456051976
  0
LWPOLYLINE
  5
42D
330
70
100
AcDbEntity
  8
0
 62
     2
100
AcDbPolyline
 90
       32
 70
     1
 43
0.0
 10
2683.49934032089
 20
36.7223231003826
 10
2391.199340320887
 20
36.7223231003826
 10
2391.199340320887
 20
43.22232310038259
 10
2426.299340320893
 20
43.22232310038259
 10
2426.299340320893
 20
55.22232310038259
 10
2391.199340320887
 20
55.22232310038259
 10
2391.199340320887
 20
62.02232310038323
 10
2411.199340320887
 20
62.02232310038323
 10
2411.199340320887
 20
101.8223231003834
 10
2391.199340320887
 20
101.8223231003834
 10
2391.199340320887
 20
142.0223231003832
 10
2411.199340320887
 20
142.0223231003832
 10
2411.199340320887
 20
181.8223231003834
 10
2391.199340320887
 20
181.8223231003834
 10
2391.199340320887
 20
222.0223231003832
 10
2411.199340320887
 20
222.0223231003832
 10
2411.199340320887
 20
261.8223231003834
 10
2391.199340320887
 20
261.8223231003834
 10
2391.199340320887
 20
302.0223231003833
 10
2411.199340320887
 20
302.0223231003833
 10
2411.199340320887
 20
341.8223231003834
 10
2391.199340320887
 20
341.8223231003834
 10
2391.199340320887
 20
382.0223231003832
 10
2411.199340320887
 20
382.0223231003832
 10
2411.199340320887
 20
421.8223231003833
 10
2391.199340320887
 20
421.8223231003833
 10
2391.199340320887
 20
462.0223231003832
 10
2411.199340320887
 20
462.0223231003832
 10
2411.199340320887
 20
501.8223231003834
 10
2391.199340320887
 20
501.8223231003834
 10
2391.199340320887
 20
541.9223231003833
 10
2683.49934032089
 20
541.9223231003833
  0
LWPOLYLINE
  5
42E
330
70
100
AcDbEntity
  8
corte interior
100
AcDbPolyline
 90
        4
 70
     1
 43
0.0
 10
2481.349340320893
 20
43.22232310038259
 10
2481.349340320893
 20
55.22232310038259
 10
2531.349340320892
 20
55.22232310038259
 10
2531.349340320892
 20
43.22232310038259
  0
LWPOLYLINE
  5
42F
330
70
100
AcDbEntity
  8
corte interior
100
AcDbPolyline
 90
        4
 70
     1
 43
0.0
 10
2586.399340320892
 20
43.22232310038259
 10
2586.399340320892
 20
55.22232310038259
 10
2636.399340320892
 20
55.22232310038259
 10
2636.399340320892
 20
43.22232310038259
  0
LWPOLYLINE
  5
430
330
70
100
AcDbEntity
  8
corte interior
100
AcDbPolyline
 90
        4
 70
     1
 43
0.0
 10
2673.999340320894
 20
284.7223231003808
 10
2667.999340320894
 20
284.7223231003808
 10
2667.999340320894
 20
309.7223231003808
 10
2673.999340320894
 20
309.7223231003808
  0
LWPOLYLINE
  5
431
330
70
100
AcDbEntity
  8
corte interior
100
AcDbPolyline
 90
        4
 70
     1
 43
0.0
 10
2673.999340320894
 20
190.5223231003818
 10
2667.999340320894
 20
190.5223231003818
 10
2667.999340320894
 20
215.5223231003819
 10
2673.999340320894
 20
215.5223231003819
  0
LWPOLYLINE
  5
432
330
70
100
AcDbEntity
  8
corte interior
100
AcDbPolyline
 90
        4
 70
     1
 43
0.0
 10
2673.999340320894
 20
96.32232310038205
 10
2667.999340320894
 20
96.32232310038205
 10
2667.999340320894
 20
121.322323100382
 10
2673.999340320894
 20
121.322323100382
  0
LWPOLYLINE
  5
433
330
70
100
AcDbEntity
  8
corte interior
100
AcDbPolyline
 90
        4
 70
     1
 43
0.0
 10
2673.999340320894
 20
378.9223231003806
 10
2667.999340320894
 20
378.9223231003806
 10
2667.999340320894
 20
403.9223231003806
 10
2673.999340320894
 20
403.9223231003806
  0
LWPOLYLINE
  5
434
330
70
100
AcDbEntity
  8
0
 62
     6
100
AcDbPolyline
 90
        4
 70
     1
 43
0.0
 10
2868.702198374895
 20
0.0000018456050839
 10
2868.702198374895
 20
600.0000018456051
 10
3268.702198374895
 20
600.0000018456051
 10
3268.702198374895
 20
0.0000018456050839
  0
LWPOLYLINE
  5
435
330
70
100
AcDbEntity
  8
corte interior
100
AcDbPolyline
 90
        4
 70
     1
 43
0.0
 10
2980.019436037274
 20
284.7223231003808
 10
2986.019436037274
 20
284.7223231003808
 10
2986.019436037274
 20
309.7223231003808
 10
2980.019436037274
 20
309.7223231003808
  0
LWPOLYLINE
  5
436
330
70
100
AcDbEntity
  8
corte interior
100
AcDbPolyline
 90
        4
 70
     1
 43
0.0
 10
2980.019436037274
 20
190.5223231003818
 10
2986.019436037274
 20
190.5223231003818
 10
2986.019436037274
 20
215.5223231003819
 10
2980.019436037274
 20
215.5223231003819
  0
LWPOLYLINE
  5
437
330
70
100
AcDbEntity
  8
corte interior
100
AcDbPolyline
 90
        4
 70
     1
 43
0.0
 10
2980.019436037274
 20
96.32232310038194
 10
2986.019436037274
 20
96.32232310038194
 10
2986.019436037274
 20
121.3223231003819
 10
2980.019436037274
 20
121.3223231003819
  0
LWPOLYLINE
  5
438
330
70
100
AcDbEntity
  8
corte interior
100
AcDbPolyline
 90
        4
 70
     1
 43
0.0
 10
2980.019436037274
 20
378.9223231003806
 10
2986.019436037274
 20
378.9223231003806
 10
2986.019436037274
 20
403.9223231003806
 10
2980.019436037274
 20
403.9223231003806
  0
LWPOLYLINE
  5
439
330
70
100
AcDbEntity
  8
0
 62
     2
100
AcDbPolyline
 90
       32
 70
     1
 43
0.0
 10
2970.51943603727
 20
541.9223231003833
 10
3242.819436037271
 20
541.9223231003833
 10
3242.819436037271
 20
502.0223231003832
 10
3262.819436037271
 20
502.0223231003832
 10
3262.819436037271
 20
461.8223231003834
 10
3242.819436037271
 20
461.8223231003834
 10
3242.819436037271
 20
422.0223231003832
 10
3262.819436037271
 20
422.0223231003832
 10
3262.819436037271
 20
381.8223231003834
 10
3242.819436037271
 20
381.8223231003834
 10
3242.819436037271
 20
342.0223231003832
 10
3262.819436037271
 20
342.0223231003832
 10
3262.819436037271
 20
301.8223231003834
 10
3242.819436037271
 20
301.8223231003834
 10
3242.819436037271
 20
262.0223231003832
 10
3262.819436037271
 20
262.0223231003832
 10
3262.819436037271
 20
221.8223231003834
 10
3242.819436037271
 20
221.8223231003834
 10
3242.819436037271
 20
182.0223231003832
 10
3262.819436037271
 20
182.0223231003832
 10
3262.819436037271
 20
141.8223231003833
 10
3242.819436037271
 20
141.8223231003833
 10
3242.819436037271
 20
102.0223231003831
 10
3262.819436037271
 20
102.0223231003831
 10
3262.819436037271
 20
61.8223231003833
 10
3242.819436037271
 20
61.8223231003833
 10
3242.819436037271
 20
55.22232310038248
 10
3227.719436037274
 20
55.22232310038248
 10
3227.719436037274
 20
43.22232310038248
 10
3242.819436037271
 20
43.22232310038248
 10
3242.819436037271
 20
36.72232310038249
 10
2970.51943603727
 20
36.72232310038249
  0
LWPOLYLINE
  5
43A
330
70
100
AcDbEntity
  8
corte interior
100
AcDbPolyline
 90
        4
 70
     1
 43
0.0
 10
3017.619436037276
 20
43.22232310038248
 10
3017.619436037276
 20
55.22232310038248
 10
3067.619436037276
 20
55.22232310038248
 10
3067.619436037276
 20
43.22232310038248
  0
LWPOLYLINE
  5
43B
330
70
100
AcDbEntity
  8
corte interior
100
AcDbPolyline
 90
        4
 70
     1
 43
0.0
 10
3122.669436037275
 20
43.22232310038248
 10
3122.669436037275
 20
55.22232310038248
 10
3172.669436037275
 20
55.22232310038248
 10
3172.669436037275
 20
43.22232310038248
  0
LWPOLYLINE
  5
43C
330
70
100
AcDbEntity
  8
0
 62
     6
100
AcDbPolyline
 90
        4
 70
     1
 43
0.0
 10
3344.438489554351
 20
0.0000018456050839
 10
3344.438489554351
 20
600.0000018456051
 10
3744.438489554351
 20
600.0000018456051
 10
3744.438489554351
 20
0.0000018456050839
  0
LWPOLYLINE
  5
43D
330
70
100
AcDbEntity
  8
0
 62
     2
100
AcDbPolyline
 90
       32
 70
     1
 43
0.0
 10
3642.526168959241
 20
36.72232310038249
 10
3350.226168959238
 20
36.72232310038249
 10
3350.226168959238
 20
43.22232310038248
 10
3385.326168959244
 20
43.22232310038248
 10
3385.326168959244
 20
55.22232310038248
 10
3350.226168959238
 20
55.22232310038248
 10
3350.226168959238
 20
62.02232310038311
 10
3370.226168959238
 20
62.02232310038311
 10
3370.226168959238
 20
101.8223231003833
 10
3350.226168959238
 20
101.8223231003833
 10
3350.226168959238
 20
142.0223231003831
 10
3370.226168959238
 20
142.0223231003831
 10
3370.226168959238
 20
181.8223231003834
 10
3350.226168959238
 20
181.8223231003834
 10
3350.226168959238
 20
222.0223231003832
 10
3370.226168959238
 20
222.0223231003832
 10
3370.226168959238
 20
261.8223231003834
 10
3350.226168959238
 20
261.8223231003834
 10
3350.226168959238
 20
302.0223231003833
 10
3370.226168959238
 20
302.0223231003833
 10
3370.226168959238
 20
341.8223231003834
 10
3350.226168959238
 20
341.8223231003834
 10
3350.226168959238
 20
382.0223231003832
 10
3370.226168959238
 20
382.0223231003832
 10
3370.226168959238
 20
421.8223231003833
 10
3350.226168959238
 20
421.8223231003833
 10
3350.226168959238
 20
462.0223231003832
 10
3370.226168959238
 20
462.0223231003832
 10
3370.226168959238
 20
501.8223231003834
 10
3350.226168959238
 20
501.8223231003834
 10
3350.226168959238
 20
541.9223231003833
 10
3642.526168959241
 20
541.9223231003833
  0
LWPOLYLINE
  5
43E
330
70
100
AcDbEntity
  8
corte interior
100
AcDbPolyline
 90
        4
 70
     1
 43
0.0
 10
3440.376168959243
 20
43.22232310038248
 10
3440.376168959243
 20
55.22232310038248
 10
3490.376168959243
 20
55.22232310038248
 10
3490.376168959243
 20
43.22232310038248
  0
LWPOLYLINE
  5
43F
330
70
100
AcDbEntity
  8
corte interior
100
AcDbPolyline
 90
        4
 70
     1
 43
0.0
 10
3545.426168959242
 20
43.22232310038248
 10
3545.426168959242
 20
55.22232310038248
 10
3595.426168959242
 20
55.22232310038248
 10
3595.426168959242
 20
43.22232310038248
  0
LWPOLYLINE
  5
440
330
70
100
AcDbEntity
  8
corte interior
100
AcDbPolyline
 90
        4
 70
     1
 43
0.0
 10
3633.026168959245
 20
284.7223231003808
 10
3627.026168959245
 20
284.7223231003808
 10
3627.026168959245
 20
309.7223231003808
 10
3633.026168959245
 20
309.7223231003808
  0
LWPOLYLINE
  5
441
330
70
100
AcDbEntity
  8
corte interior
100
AcDbPolyline
 90
        4
 70
     1
 43
0.0
 10
3633.026168959245
 20
190.5223231003818
 10
3627.026168959245
 20
190.5223231003818
 10
3627.026168959245
 20
215.5223231003819
 10
3633.026168959245
 20
215.5223231003819
  0
LWPOLYLINE
  5
442
330
70
100
AcDbEntity
  8
corte interior
100
AcDbPolyline
 90
        4
 70
     1
 43
0.0
 10
3633.026168959245
 20
96.32232310038194
 10
3627.026168959245
 20
96.32232310038194
 10
3627.026168959245
 20
121.3223231003819
 10
3633.026168959245
 20
121.3223231003819
  0
LWPOLYLINE
  5
443
330
70
100
AcDbEntity
  8
corte interior
100
AcDbPolyline
 90
        4
 70
     1
 43
0.0
 10
3633.026168959245
 20
378.9223231003806
 10
3627.026168959245
 20
378.9223231003806
 10
3627.026168959245
 20
403.9223231003806
 10
3633.026168959245
 20
403.9223231003806
  0
LWPOLYLINE
  5
444
330
70
100
AcDbEntity
  8
corte interior
100
AcDbPolyline
 90
        9
 70
     0
 43
0.0
 10
3888.397842516922
 20
531.1533987233174
 10
3888.397842516922
 20
556.1533987233174
 10
3897.497842516922
 20
556.1533987233174
 10
3897.497842516922
 20
531.1533987233174
 10
3923.197842516922
 20
531.1533987233174
 10
3923.197842516922
 20
61.15339872331742
 10
3862.697842516922
 20
61.15339872331742
 10
3862.697842516922
 20
531.1533987233174
 10
3888.397842516922
 20
531.1533987233174
  0
LWPOLYLINE
  5
445
330
70
100
AcDbEntity
  8
corte interior
100
AcDbPolyline
 90
        9
 70
     0
 43
0.0
 10
4144.447842516921
 20
531.1533987233174
 10
4144.447842516921
 20
556.1533987233174
 10
4153.447842516921
 20
556.1533987233174
 10
4153.447842516921
 20
531.1533987233174
 10
4179.197842516922
 20
531.1533987233174
 10
4179.197842516922
 20
61.15339872331742
 10
4118.697842516922
 20
61.15339872331742
 10
4118.697842516922
 20
531.1533987233174
 10
4144.447842516921
 20
531.1533987233174
  0
LINE
  5
446
330
70
100
AcDbEntity
  8
0
 62
     2
100
AcDbLine
 10
4084.947842516921
 20
21.15339872331742
 30
0.0
 11
4084.947842516921
 21
581.1533987233174
 31
0.0
  0
LINE
  5
447
330
70
100
AcDbEntity
  8
0
 62
     2
100
AcDbLine
 10
3956.947842516921
 20
21.15339872331742
 30
0.0
 11
3956.947842516921
 21
581.1533987233174
 31
0.0
  0
LWPOLYLINE
  5
448
330
70
100
AcDbEntity
  8
0
 62
     2
100
AcDbPolyline
 90
        4
 70
     1
 43
0.0
 10
4304.684133696379
 20
581.1533987233174
 10
4688.684133696379
 20
581.1533987233174
 10
4688.684133696379
 20
21.15339872331742
 10
4304.684133696379
 20
21.15339872331742
  0
LWPOLYLINE
  5
449
330
70
100
AcDbEntity
  8
0
 62
     6
100
AcDbPolyline
 90
        4
 70
     1
 43
0.0
 10
4295.911071913265
 20
0.0000018456051976
 10
4295.911071913265
 20
600.0000018456051
 10
4695.911071913266
 20
600.0000018456051
 10
4695.911071913266
 20
0.0000018456051976
  0
LWPOLYLINE
  5
44A
330
70
100
AcDbEntity
  8
corte interior
100
AcDbPolyline
 90
        9
 70
     0
 43
0.0
 10
4492.184133696379
 20
531.1533987233174
 10
4492.184133696379
 20
556.1533987233174
 10
4501.184133696379
 20
556.1533987233174
 10
4501.184133696379
 20
531.1533987233174
 10
4526.934133696379
 20
531.1533987233174
 10
4526.934133696379
 20
61.15339872331742
 10
4466.434133696378
 20
61.15339872331742
 10
4466.434133696378
 20
531.1533987233174
 10
4492.184133696379
 20
531.1533987233174
  0
LWPOLYLINE
  5
44B
330
70
100
AcDbEntity
  8
corte interior
100
AcDbPolyline
 90
        9
 70
     0
 43
0.0
 10
4364.134133696379
 20
531.1533987233174
 10
4364.134133696379
 20
556.1533987233174
 10
4373.234133696378
 20
556.1533987233174
 10
4373.234133696378
 20
531.1533987233174
 10
4398.934133696378
 20
531.1533987233174
 10
4398.934133696378
 20
61.15339872331742
 10
4338.434133696379
 20
61.15339872331742
 10
4338.434133696379
 20
531.1533987233174
 10
4364.134133696379
 20
531.1533987233174
  0
LWPOLYLINE
  5
44C
330
70
100
AcDbEntity
  8
corte interior
100
AcDbPolyline
 90
        9
 70
     0
 43
0.0
 10
4620.184133696379
 20
531.1533987233174
 10
4620.184133696379
 20
556.1533987233174
 10
4629.184133696379
 20
556.1533987233174
 10
4629.184133696379
 20
531.1533987233174
 10
4654.934133696379
 20
531.1533987233174
 10
4654.934133696379
 20
61.15339872331742
 10
4594.434133696378
 20
61.15339872331742
 10
4594.434133696378
 20
531.1533987233174
 10
4620.184133696379
 20
531.1533987233174
  0
LINE
  5
44D
330
70
100
AcDbEntity
  8
0
 62
     2
100
AcDbLine
 10
4560.684133696379
 20
21.15339872331742
 30
0.0
 11
4560.684133696379
 21
581.1533987233174
 31
0.0
  0
LINE
  5
44E
330
70
100
AcDbEntity
  8
0
 62
     2
100
AcDbLine
 10
4432.684133696379
 20
21.15339872331742
 30
0.0
 11
4432.684133696379
 21
581.1533987233174
 31
0.0
  0
LINE
  5
44F
330
70
100
AcDbEntity
  8
corte interior
100
AcDbLine
 10
1802.152424859929
 20
412.9606514326318
 30
0.0
 11
1753.952424859928
 21
412.9606514326318
 31
0.0
  0
LINE
  5
450
330
70
100
AcDbEntity
  8
corte interior
100
AcDbLine
 10
1802.152424859929
 20
387.9606514326318
 30
0.0
 11
1753.952424859928
 21
387.9606514326318
 31
0.0
  0
LINE
  5
451
330
70
100
AcDbEntity
  8
corte interior
100
AcDbLine
 10
1802.152424859929
 20
362.9606514326318
 30
0.0
 11
1753.952424859928
 21
362.9606514326318
 31
0.0
  0
LINE
  5
452
330
70
100
AcDbEntity
  8
corte interior
100
AcDbLine
 10
1802.152424859929
 20
337.9606514326318
 30
0.0
 11
1753.952424859928
 21
337.9606514326318
 31
0.0
  0
LINE
  5
453
330
70
100
AcDbEntity
  8
corte interior
100
AcDbLine
 10
1802.152424859929
 20
312.9606514326318
 30
0.0
 11
1753.952424859928
 21
312.9606514326318
 31
0.0
  0
LINE
  5
454
330
70
100
AcDbEntity
  8
corte interior
100
AcDbLine
 10
1802.152424859929
 20
287.9606514326318
 30
0.0
 11
1753.952424859928
 21
287.9606514326318
 31
0.0
  0
LINE
  5
455
330
70
100
AcDbEntity
  8
corte interior
100
AcDbLine
 10
1802.152424859929
 20
237.9606514326318
 30
0.0
 11
1753.952424859928
 21
237.9606514326318
 31
0.0
  0
LINE
  5
456
330
70
100
AcDbEntity
  8
corte interior
100
AcDbLine
 10
1802.152424859929
 20
187.9606514326318
 30
0.0
 11
1753.952424859928
 21
187.9606514326318
 31
0.0
  0
LINE
  5
457
330
70
100
AcDbEntity
  8
corte interior
100
AcDbLine
 10
1802.152424859929
 20
37.96065143263184
 30
0.0
 11
1753.952424859928
 21
37.96065143263184
 31
0.0
  0
LINE
  5
458
330
70
100
AcDbEntity
  8
corte interior
100
AcDbLine
 10
1980.839258046426
 20
137.9606514326318
 30
0.0
 11
1932.639258046425
 21
137.9606514326318
 31
0.0
  0
LINE
  5
459
330
70
100
AcDbEntity
  8
corte interior
100
AcDbLine
 10
1980.839258046426
 20
87.96065143263183
 30
0.0
 11
1932.639258046425
 21
87.96065143263183
 31
0.0
  0
LWPOLYLINE
  5
45A
330
70
100
AcDbEntity
  8
0
 62
     2
100
AcDbPolyline
 90
        4
 70
     1
 43
0.0
 10
1932.639258046425
 20
437.9606514326318
 10
1980.839258046426
 20
437.9606514326318
 10
1980.839258046426
 20
37.96065143263184
 10
1932.639258046425
 20
37.96065143263184
  0
LINE
  5
45B
330
70
100
AcDbEntity
  8
corte interior
100
AcDbLine
 10
1980.839258046426
 20
412.9606514326318
 30
0.0
 11
1932.639258046425
 21
412.9606514326318
 31
0.0
  0
LINE
  5
45C
330
70
100
AcDbEntity
  8
corte interior
100
AcDbLine
 10
1980.839258046426
 20
387.9606514326318
 30
0.0
 11
1932.639258046425
 21
387.9606514326318
 31
0.0
  0
LINE
  5
45D
330
70
100
AcDbEntity
  8
corte interior
100
AcDbLine
 10
1980.839258046426
 20
362.9606514326318
 30
0.0
 11
1932.639258046425
 21
362.9606514326318
 31
0.0
  0
LINE
  5
45E
330
70
100
AcDbEntity
  8
corte interior
100
AcDbLine
 10
1980.839258046426
 20
337.9606514326318
 30
0.0
 11
1932.639258046425
 21
337.9606514326318
 31
0.0
  0
LINE
  5
45F
330
70
100
AcDbEntity
  8
corte interior
100
AcDbLine
 10
1980.839258046426
 20
312.9606514326318
 30
0.0
 11
1932.639258046425
 21
312.9606514326318
 31
0.0
  0
LINE
  5
460
330
70
100
AcDbEntity
  8
corte interior
100
AcDbLine
 10
1980.839258046426
 20
287.9606514326318
 30
0.0
 11
1932.639258046425
 21
287.9606514326318
 31
0.0
  0
LINE
  5
461
330
70
100
AcDbEntity
  8
corte interior
100
AcDbLine
 10
1980.839258046426
 20
237.9606514326318
 30
0.0
 11
1932.639258046425
 21
237.9606514326318
 31
0.0
  0
LINE
  5
462
330
70
100
AcDbEntity
  8
corte interior
100
AcDbLine
 10
1980.839258046426
 20
187.9606514326318
 30
0.0
 11
1932.639258046425
 21
187.9606514326318
 31
0.0
  0
LINE
  5
463
330
70
100
AcDbEntity
  8
corte interior
100
AcDbLine
 10
1980.839258046426
 20
37.96065143263184
 30
0.0
 11
1932.639258046425
 21
37.96065143263184
 31
0.0
  0
LINE
  5
464
330
70
100
AcDbEntity
  8
corte interior
100
AcDbLine
 10
2762.741452551951
 20
137.9606514326318
 30
0.0
 11
2714.54145255195
 21
137.9606514326318
 31
0.0
  0
LINE
  5
465
330
70
100
AcDbEntity
  8
corte interior
100
AcDbLine
 10
2762.741452551951
 20
87.96065143263183
 30
0.0
 11
2714.54145255195
 21
87.96065143263183
 31
0.0
  0
LWPOLYLINE
  5
466
330
70
100
AcDbEntity
  8
0
 62
     2
100
AcDbPolyline
 90
        4
 70
     1
 43
0.0
 10
2714.54145255195
 20
437.9606514326318
 10
2762.741452551951
 20
437.9606514326318
 10
2762.741452551951
 20
37.96065143263184
 10
2714.54145255195
 20
37.96065143263184
  0
LINE
  5
467
330
70
100
AcDbEntity
  8
corte interior
100
AcDbLine
 10
2762.741452551951
 20
412.9606514326318
 30
0.0
 11
2714.54145255195
 21
412.9606514326318
 31
0.0
  0
LINE
  5
468
330
70
100
AcDbEntity
  8
corte interior
100
AcDbLine
 10
2762.741452551951
 20
387.9606514326318
 30
0.0
 11
2714.54145255195
 21
387.9606514326318
 31
0.0
  0
LINE
  5
469
330
70
100
AcDbEntity
  8
corte interior
100
AcDbLine
 10
2762.741452551951
 20
362.9606514326318
 30
0.0
 11
2714.54145255195
 21
362.9606514326318
 31
0.0
  0
LINE
  5
46A
330
70
100
AcDbEntity
  8
corte interior
100
AcDbLine
 10
2762.741452551951
 20
337.9606514326318
 30
0.0
 11
2714.54145255195
 21
337.9606514326318
 31
0.0
  0
LINE
  5
46B
330
70
100
AcDbEntity
  8
corte interior
100
AcDbLine
 10
2762.741452551951
 20
312.9606514326318
 30
0.0
 11
2714.54145255195
 21
312.9606514326318
 31
0.0
  0
LINE
  5
46C
330
70
100
AcDbEntity
  8
corte interior
100
AcDbLine
 10
2762.741452551951
 20
287.9606514326318
 30
0.0
 11
2714.54145255195
 21
287.9606514326318
 31
0.0
  0
LINE
  5
46D
330
70
100
AcDbEntity
  8
corte interior
100
AcDbLine
 10
2762.741452551951
 20
237.9606514326318
 30
0.0
 11
2714.54145255195
 21
237.9606514326318
 31
0.0
  0
LINE
  5
46E
330
70
100
AcDbEntity
  8
corte interior
100
AcDbLine
 10
2762.741452551951
 20
187.9606514326318
 30
0.0
 11
2714.54145255195
 21
187.9606514326318
 31
0.0
  0
LINE
  5
46F
330
70
100
AcDbEntity
  8
corte interior
100
AcDbLine
 10
2942.676407291024
 20
137.9606514326318
 30
0.0
 11
2894.476407291024
 21
137.9606514326318
 31
0.0
  0
LINE
  5
470
330
70
100
AcDbEntity
  8
corte interior
100
AcDbLine
 10
2942.676407291024
 20
87.96065143263183
 30
0.0
 11
2894.476407291024
 21
87.96065143263183
 31
0.0
  0
LWPOLYLINE
  5
471
330
70
100
AcDbEntity
  8
0
 62
     2
100
AcDbPolyline
 90
        4
 70
     1
 43
0.0
 10
2894.476407291024
 20
437.9606514326318
 10
2942.676407291024
 20
437.9606514326318
 10
2942.676407291024
 20
37.96065143263184
 10
2894.476407291024
 20
37.96065143263184
  0
LINE
  5
472
330
70
100
AcDbEntity
  8
corte interior
100
AcDbLine
 10
2942.676407291024
 20
412.9606514326318
 30
0.0
 11
2894.476407291024
 21
412.9606514326318
 31
0.0
  0
LINE
  5
473
330
70
100
AcDbEntity
  8
corte interior
100
AcDbLine
 10
2942.676407291024
 20
387.9606514326318
 30
0.0
 11
2894.476407291024
 21
387.9606514326318
 31
0.0
  0
LINE
  5
474
330
70
100
AcDbEntity
  8
corte interior
100
AcDbLine
 10
2942.676407291024
 20
362.9606514326318
 30
0.0
 11
2894.476407291024
 21
362.9606514326318
 31
0.0
  0
LINE
  5
475
330
70
100
AcDbEntity
  8
corte interior
100
AcDbLine
 10
2942.676407291024
 20
337.9606514326318
 30
0.0
 11
2894.476407291024
 21
337.9606514326318
 31
0.0
  0
LINE
  5
476
330
70
100
AcDbEntity
  8
corte interior
100
AcDbLine
 10
2942.676407291024
 20
312.9606514326318
 30
0.0
 11
2894.476407291024
 21
312.9606514326318
 31
0.0
  0
LINE
  5
477
330
70
100
AcDbEntity
  8
corte interior
100
AcDbLine
 10
2942.676407291024
 20
287.9606514326318
 30
0.0
 11
2894.476407291024
 21
287.9606514326318
 31
0.0
  0
LINE
  5
478
330
70
100
AcDbEntity
  8
corte interior
100
AcDbLine
 10
2942.676407291024
 20
237.9606514326318
 30
0.0
 11
2894.476407291024
 21
237.9606514326318
 31
0.0
  0
LINE
  5
479
330
70
100
AcDbEntity
  8
corte interior
100
AcDbLine
 10
2942.676407291024
 20
187.9606514326318
 30
0.0
 11
2894.476407291024
 21
187.9606514326318
 31
0.0
  0
LINE
  5
47A
330
70
100
AcDbEntity
  8
corte interior
100
AcDbLine
 10
2942.676407291024
 20
37.96065143263184
 30
0.0
 11
2894.476407291024
 21
37.96065143263184
 31
0.0
  0
LWPOLYLINE
  5
47B
330
70
100
AcDbEntity
  8
corte interior
100
AcDbPolyline
 90
        4
 70
     1
 43
0.0
 10
3673.475056856918
 20
57.09382176475435
 10
3673.475056856918
 20
69.09382176475435
 10
3723.475056856918
 20
69.09382176475435
 10
3723.475056856918
 20
57.09382176475435
  0
LWPOLYLINE
  5
47C
330
70
100
AcDbEntity
  8
corte interior
100
AcDbPolyline
 90
        4
 70
     1
 43
0.0
 10
3713.028591711958
 20
106.6197450375248
 10
3713.028591711958
 20
100.6197450375248
 10
3688.028591711958
 20
100.6197450375248
 10
3688.028591711958
 20
106.6197450375248
  0
LWPOLYLINE
  5
47D
330
70
100
AcDbEntity
  8
corte interior
100
AcDbPolyline
 90
        4
 70
     1
 43
0.0
 10
3660.99734577225
 20
131.6158341886539
 10
3734.030268963174
 20
131.6158341886539
 10
3734.030268963174
 20
35.85775338354688
 10
3660.99734577225
 20
35.85775338354688
  0
LWPOLYLINE
  5
47E
330
70
100
AcDbEntity
  8
corte interior 2
100
AcDbPolyline
 90
        4
 70
     0
 43
0.0
 10
3862.697842516922
 20
497.4471716896848
 10
3909.797842516922
 20
497.4471716896848
 10
3909.797842516922
 20
77.24717168968414
 10
3862.697842516922
 20
77.24717168968414
  0
LWPOLYLINE
  5
47F
330
70
100
AcDbEntity
  8
corte interior 2
100
AcDbPolyline
 90
        4
 70
     0
 43
0.0
 10
3862.697842516922
 20
503.4471716896848
 10
3915.797842516921
 20
503.4471716896848
 10
3915.797842516921
 20
71.2471716896842
 10
3862.697842516922
 20
71.24717168968413
  0
LWPOLYLINE
  5
480
330
70
100
AcDbEntity
  8
corte interior 2
100
AcDbPolyline
 90
        4
 70
     0
 43
0.0
 10
3990.697842516922
 20
497.4471716896848
 10
4037.797842516921
 20
497.4471716896848
 10
4037.797842516921
 20
77.24717168968414
 10
3990.697842516922
 20
77.24717168968414
  0
LWPOLYLINE
  5
481
330
70
100
AcDbEntity
  8
corte interior 2
100
AcDbPolyline
 90
        4
 70
     0
 43
0.0
 10
3990.697842516922
 20
503.4471716896848
 10
4043.797842516921
 20
503.4471716896848
 10
4043.797842516921
 20
71.2471716896842
 10
3990.697842516922
 20
71.24717168968413
  0
LWPOLYLINE
  5
482
330
70
100
AcDbEntity
  8
corte interior 2
100
AcDbPolyline
 90
        4
 70
     0
 43
0.0
 10
4118.697842516922
 20
497.4471716896848
 10
4165.797842516921
 20
497.4471716896848
 10
4165.797842516921
 20
77.24717168968414
 10
4118.697842516922
 20
77.24717168968414
  0
LWPOLYLINE
  5
483
330
70
100
AcDbEntity
  8
corte interior 2
100
AcDbPolyline
 90
        4
 70
     0
 43
0.0
 10
4118.697842516922
 20
503.4471716896848
 10
4171.797842516921
 20
503.4471716896848
 10
4171.797842516921
 20
71.2471716896842
 10
4118.697842516922
 20
71.24717168968413
  0
LWPOLYLINE
  5
484
330
70
100
AcDbEntity
  8
corte interior 2
100
AcDbPolyline
 90
        4
 70
     0
 43
0.0
 10
4338.434133696379
 20
497.4471716896848
 10
4385.534133696378
 20
497.4471716896848
 10
4385.534133696378
 20
77.24717168968414
 10
4338.434133696379
 20
77.24717168968414
  0
LWPOLYLINE
  5
485
330
70
100
AcDbEntity
  8
corte interior 2
100
AcDbPolyline
 90
        4
 70
     0
 43
0.0
 10
4338.434133696379
 20
503.4471716896848
 10
4391.534133696378
 20
503.4471716896848
 10
4391.534133696378
 20
71.2471716896842
 10
4338.434133696379
 20
71.24717168968413
  0
LWPOLYLINE
  5
486
330
70
100
AcDbEntity
  8
corte interior 2
100
AcDbPolyline
 90
        4
 70
     0
 43
0.0
 10
4466.484133696378
 20
497.4471716896848
 10
4513.584133696379
 20
497.4471716896848
 10
4513.584133696379
 20
77.24717168968414
 10
4466.484133696378
 20
77.24717168968414
  0
LWPOLYLINE
  5
487
330
70
100
AcDbEntity
  8
corte interior 2
100
AcDbPolyline
 90
        4
 70
     0
 43
0.0
 10
4466.484133696378
 20
503.4471716896848
 10
4519.584133696379
 20
503.4471716896848
 10
4519.584133696379
 20
71.2471716896842
 10
4466.484133696378
 20
71.24717168968413
  0
LWPOLYLINE
  5
488
330
70
100
AcDbEntity
  8
corte interior 2
100
AcDbPolyline
 90
        4
 70
     0
 43
0.0
 10
4594.484133696378
 20
497.4471716896848
 10
4641.584133696379
 20
497.4471716896848
 10
4641.584133696379
 20
77.24717168968414
 10
4594.484133696378
 20
77.24717168968414
  0
LWPOLYLINE
  5
489
330
70
100
AcDbEntity
  8
corte interior 2
100
AcDbPolyline
 90
        4
 70
     0
 43
0.0
 10
4594.484133696378
 20
503.4471716896848
 10
4647.584133696379
 20
503.4471716896848
 10
4647.584133696379
 20
71.2471716896842
 10
4594.484133696378
 20
71.24717168968413
  0
LINE
  5
48A
330
70
100
AcDbEntity
  8
corte interior
100
AcDbLine
 10
3723.319271394607
 20
250.0877073916439
 30
0.0
 11
3675.119271394606
 21
250.0877073916439
 31
0.0
  0
LINE
  5
48B
330
70
100
AcDbEntity
  8
corte interior
100
AcDbLine
 10
3723.319271394607
 20
200.0877073916439
 30
0.0
 11
3675.119271394606
 21
200.0877073916439
 31
0.0
  0
LWPOLYLINE
  5
48C
330
70
100
AcDbEntity
  8
0
 62
     2
100
AcDbPolyline
 90
        4
 70
     1
 43
0.0
 10
3675.119271394606
 20
400.0877073916439
 10
3723.319271394607
 20
400.0877073916439
 10
3723.319271394607
 20
150.0877073916439
 10
3675.119271394606
 20
150.0877073916439
  0
LINE
  5
48D
330
70
100
AcDbEntity
  8
corte interior
100
AcDbLine
 10
3723.319271394607
 20
375.0877073916439
 30
0.0
 11
3675.119271394606
 21
375.0877073916439
 31
0.0
  0
LINE
  5
48E
330
70
100
AcDbEntity
  8
corte interior
100
AcDbLine
 10
3723.319271394607
 20
350.0877073916439
 30
0.0
 11
3675.119271394606
 21
350.0877073916439
 31
0.0
  0
LINE
  5
48F
330
70
100
AcDbEntity
  8
corte interior
100
AcDbLine
 10
3723.319271394607
 20
300.0877073916439
 30
0.0
 11
3675.119271394606
 21
300.0877073916439
 31
0.0
  0
LWPOLYLINE
  5
55D
330
70
100
AcDbEntity
  8
grabado
100
AcDbPolyline
 90
       33
 70
     1
 43
0.0
 10
164.3860294692204
 20
81.03124330707004
 10
164.7633722456112
 20
80.79388175590038
 10
165.853565763751
 20
81.41809508441895
 10
166.9364510037835
 20
80.80783563940073
 10
166.9620535999141
 20
80.42994827111501
 10
167.0556738038222
 20
80.20857751839319
 10
167.2359478785711
 20
79.981186635867
 10
167.5021251915796
 20
79.7735269902398
 10
167.7818721811903
 20
79.63377672709029
 10
168.1945720506743
 20
79.50696877200556
 10
168.3885467336607
 20
79.46858111602001
 10
168.6977095893467
 20
79.433648425492
 10
169.0519097239128
 20
79.43792030705364
 10
169.3143312437333
 20
79.47543037610557
 10
169.6145155315523
 20
79.55854157466635
 10
169.9161614908735
 20
79.69339951256504
 10
170.1646373291691
 20
79.85814617751898
 10
170.3794005197619
 20
80.08697564798016
 10
170.5110872322006
 20
80.36194987562353
 10
170.5522509284227
 20
80.53579061798078
 10
170.5384227409779
 20
80.9431763837623
 10
170.3723270876855
 20
81.2456689297511
 10
170.2271216124954
 20
81.3993573945269
 10
169.8892257697141
 20
81.6442984777959
 10
169.6840325387084
 20
81.73779562433065
 10
169.232182144132
 20
81.83759152197294
 10
168.9919192653435
 20
81.84988787323097
 10
168.6824698754147
 20
81.83779899537501
 10
168.3727682310727
 20
81.80611743919717
 10
167.4446975633786
 20
82.32913120803484
 10
168.7740333473125
 20
83.0902704925757
 10
172.7676058079269
 20
80.78469323060527
 10
173.1381630543278
 20
81.01598738526041
 42
0.5534944778551082
  0
LWPOLYLINE
  5
55E
330
70
100
AcDbEntity
  8
grabado
100
AcDbPolyline
 90
       33
 70
     1
 43
0.0
 10
168.5616591033169
 20
73.12106335054204
 10
168.5785488483161
 20
73.56653255641582
 10
167.4928674893683
 20
74.19856117390685
 10
167.4799250516373
 20
75.44149702366722
 10
167.7943838142766
 20
75.65261320646214
 10
167.9392864078346
 20
75.84437605771487
 10
168.0460756513167
 20
76.11419342735429
 10
168.0928255232666
 20
76.44853956514428
 10
168.0739793065343
 20
76.76068269635415
 10
167.9774482822976
 20
77.18149524500813
 10
167.9137056260795
 20
77.36867607615827
 10
167.7893767956564
 20
77.65388530835273
 10
167.608577170419
 20
77.95849568213005
 10
167.444881737812
 20
78.16700435026849
 10
167.22281318461
 20
78.38541597005633
 10
166.9551998048271
 20
78.57922006482806
 10
166.6882870886404
 20
78.71203312054163
 10
166.38273335879
 20
78.78360876416232
 10
166.0787553360455
 20
78.76016568865342
 10
165.9076229888403
 20
78.7088941241167
 10
165.5617306602557
 20
78.49322567961045
 10
165.3828122576203
 20
78.1981363514067
 10
165.3223168804509
 20
77.99554048873556
 10
165.2791396013001
 20
77.58044356341928
 10
165.3007653127224
 20
77.35599243941635
 10
165.4402647274589
 20
76.91478057018196
 10
165.5497472142899
 20
76.7005586379358
 10
165.7149411845808
 20
76.43861204399986
 10
165.8972290392332
 20
76.18624333049478
 10
165.9083211627378
 20
75.12100367134578
 10
164.5844873145402
 20
75.89167258812167
 10
164.5843895634871
 20
80.50299642185288
 10
164.1988043266085
 20
80.70826133346484
 42
0.5534944778551078
  0
LWPOLYLINE
  5
55F
330
70
100
AcDbEntity
  8
grabado
100
AcDbPolyline
 90
       33
 70
     1
 43
0.0
 10
173.3242610771284
 20
80.69235466872882
 10
172.9300285557383
 20
80.48424701402472
 10
172.9255163965464
 20
79.22800506801519
 10
171.855573594245
 20
78.59532866327296
 10
171.5155122354749
 20
78.76209984876379
 10
171.2769894380089
 20
78.79170775023289
 10
170.9899261197779
 20
78.74928126311965
 10
170.6769989348196
 20
78.62259477095688
 10
170.4160981619411
 20
78.45020190289651
 10
170.099929316694
 20
78.15619730932727
 10
169.9696972899254
 20
78.00740413416267
 10
169.7848632646628
 20
77.75712759249614
 10
169.6114627553339
 20
77.44824533715721
 10
169.5127366681204
 20
77.20222659996685
 10
169.4346209335034
 20
76.90070378161829
 10
169.400588353965
 20
76.5720417489479
 10
169.4190252318563
 20
76.27448202828038
 10
169.5098157711136
 20
75.97407691419846
 10
169.6821070814194
 20
75.722545762064
 10
169.8120757324027
 20
75.59997658424348
 10
170.1717962484319
 20
75.40825926296815
 10
170.5168103043599
 20
75.40085604518313
 10
170.7225111567194
 20
75.44976344307849
 10
171.1035842786515
 20
75.61991928512577
 10
171.2871517982348
 20
75.75087326259396
 10
171.5995027780748
 20
76.092289234186
 10
171.7302831700323
 20
76.29421481517415
 10
171.8745385896702
 20
76.56825028696613
 10
172.0019523793596
 20
76.852300556649
 10
172.9189309235492
 20
77.39452644696033
 10
172.913428987813
 20
75.86271824564352
 10
168.9199542782517
 20
73.5569716738828
 10
168.9349822687294
 20
73.12041260761569
 42
0.5534944778551079
  0
LWPOLYLINE
  5
560
330
70
100
AcDbEntity
  8
grabado
100
AcDbPolyline
 90
       33
 70
     1
 43
0.0
 10
181.8820505125113
 20
79.63147689629312
 10
182.3034038576541
 20
79.36643118758702
 10
183.5207497682212
 20
80.06344830441042
 10
184.7299350152734
 20
79.38201255248507
 10
184.7585237155188
 20
78.96005109813481
 10
184.8630631119448
 20
78.71286124049847
 10
185.064363068352
 20
78.45894910807659
 10
185.361585403731
 20
78.22706952322505
 10
185.6739600859591
 20
78.07101978662784
 10
186.1347943232282
 20
77.92942185655288
 10
186.3513928290513
 20
77.88655693830429
 10
186.6966142340645
 20
77.84754994802985
 10
187.092125744784
 20
77.85232007137302
 10
187.3851542380588
 20
77.89420504721049
 10
187.7203498791194
 20
77.98700974289686
 10
188.0571776706158
 20
78.13759654833723
 10
188.3346339575874
 20
78.3215580886731
 10
188.5744455941992
 20
78.57707659566114
 10
188.7214913050715
 20
78.88412185502406
 10
188.7674560410802
 20
79.07823814105697
 10
188.7520150325286
 20
79.53313847548888
 10
188.5665471674807
 20
79.8709115934806
 10
188.4044059618384
 20
80.04252518407994
 10
188.0271003591512
 20
80.31603444742257
 10
187.7979748539226
 20
80.42043643394146
 10
187.293423853689
 20
80.53187181294967
 10
187.0251384272143
 20
80.54560232287268
 10
186.6795970686488
 20
80.53210348456877
 10
186.3337740345156
 20
80.49672681775529
 10
185.2974598267755
 20
81.08074118040816
 10
186.7818398505195
 20
81.93065431967237
 10
191.2411941051447
 20
79.35617097826998
 10
191.6549705045005
 20
79.61444163262864
 42
0.5534944778551082
  0
LWPOLYLINE
  5
561
330
70
100
AcDbEntity
  8
grabado
100
AcDbPolyline
 90
       33
 70
     1
 43
0.0
 10
186.5446957901891
 20
70.79870999601088
 10
186.563555434521
 20
71.2961355512272
 10
185.3512479491959
 20
72.00187947655959
 10
185.3367959978841
 20
73.38978249435095
 10
185.6879309866465
 20
73.62552176219981
 10
185.8497339847044
 20
73.8396504640192
 10
185.9689783635074
 20
74.14093740625941
 10
186.0211808069183
 20
74.51427929169543
 10
186.0001365019513
 20
74.86282857030271
 10
185.892346787885
 20
75.33272169174892
 10
185.8211696431078
 20
75.5417339593378
 10
185.6823399851042
 20
75.86020796114649
 10
185.4804531817499
 20
76.20034591524731
 10
185.2976654820003
 20
76.43317354653721
 10
185.0496964374152
 20
76.67705913909022
 10
184.7508705426809
 20
76.8934671605065
 10
184.4528270319448
 20
77.04177058329578
 10
184.1116356954503
 20
77.12169429923064
 10
183.7722038452943
 20
77.0955169906822
 10
183.5811118422971
 20
77.03826547672749
 10
183.1948771007649
 20
76.79744300384581
 10
182.9950909323925
 20
76.46793656213287
 10
182.9275398061199
 20
76.24171136374669
 10
182.8793266372384
 20
75.77820049515806
 10
182.903474617322
 20
75.52757099371568
 10
183.0592442483372
 20
75.03489932050441
 10
183.1814959911744
 20
74.79569207075062
 10
183.3659570073497
 20
74.50319389532669
 10
183.5695056165781
 20
74.22139069596022
 10
183.5818914462158
 20
73.03190908442821
 10
182.1036550647308
 20
73.89246332422863
 10
182.1035459126926
 20
79.04161906390938
 10
181.672988765288
 20
79.27082461005868
 42
0.5534944778551078
  0
LWPOLYLINE
  5
562
330
70
100
AcDbEntity
  8
grabado
100
AcDbPolyline
 90
       33
 70
     1
 43
0.0
 10
191.862773672701
 20
79.2530627054565
 10
191.422560683226
 20
79.02068285894626
 10
191.4175222579841
 20
77.61792181679047
 10
190.2227889622436
 20
76.91145455092447
 10
189.8430652732358
 20
77.09767673742587
 10
189.5767228787518
 20
77.13073789324285
 10
189.2561785435418
 20
77.08336308342456
 10
188.906753764752
 20
76.94190078283998
 10
188.6154233874908
 20
76.74940124082995
 10
188.262378864288
 20
76.42110604945876
 10
188.116957503242
 20
76.25495870011842
 10
187.9105657562327
 20
75.9754916885842
 10
187.7169410488671
 20
75.6305836111402
 10
187.6067002553419
 20
75.35587100401284
 10
187.5194736588666
 20
75.01918071577342
 10
187.4814717621045
 20
74.65218588891679
 10
187.5020589858688
 20
74.31992092579161
 10
187.6034386857518
 20
73.9844787028687
 10
187.7958248250354
 20
73.70361075205426
 10
187.9409520920238
 20
73.56674597997603
 10
188.3426278421077
 20
73.35266811842581
 10
188.7278818755278
 20
73.34440144214704
 10
188.9575742074428
 20
73.39901304993388
 10
189.3830929790114
 20
73.58901465517982
 10
189.5880705041566
 20
73.73524217010339
 10
189.936851873375
 20
74.11647846430645
 10
190.0828855570125
 20
74.3419552041372
 10
190.2439658994025
 20
74.64795221786501
 10
190.3862403243075
 20
74.96513208404498
 10
191.4101687024099
 20
75.57059933292418
 10
191.4040250601509
 20
73.86013195385952
 10
186.9447799575639
 20
71.28545955558116
 10
186.9615607056127
 20
70.79798335507323
 42
0.5534944778551079
  0
LWPOLYLINE
  5
563
330
70
100
AcDbEntity
  8
grabado
100
AcDbPolyline
 90
       10
 70
     1
 43
0.0
 10
163.9915403497252
 20
68.93752576410742
 10
164.249361156705
 20
68.93752576410742
 10
164.249361156705
 20
69.90566382955993
 10
165.235583671736
 20
69.90566382955993
 10
165.235583671736
 20
70.11482206336665
 10
164.2545412001433
 20
70.11482206336665
 10
164.2545412001433
 20
70.77994859516731
 10
165.3701783058743
 20
70.77994859516731
 10
165.3701783058743
 20
71.01464112881045
 10
163.9915403497252
 20
71.01464112881045
  0
LWPOLYLINE
  5
564
330
70
100
AcDbEntity
  8
grabado
100
AcDbPolyline
 90
       12
 70
     1
 43
0.0
 10
166.9673043870772
 20
69.16360381099256
 10
166.9673043870772
 20
71.01987190075092
 10
168.0058545983145
 20
71.01987190075092
 42
-0.7748338444233952
 10
168.1192208645208
 20
70.03098536405537
 42
-0.8778066352158202
 10
168.0058545983145
 20
68.95057086010426
 10
166.7113864757557
 20
68.95057086010426
 10
166.4700191116309
 20
69.58532925176041
 10
165.6010957717533
 20
69.58532925176041
 10
165.3788302781704
 20
68.95057086010426
 10
165.0731850689489
 20
68.95057086010426
 10
165.8963242575867
 20
71.03923669525173
 10
166.1745327980818
 20
71.03923669525173
  0
LWPOLYLINE
  5
565
330
70
100
AcDbEntity
  8
grabado
100
AcDbPolyline
 90
        4
 70
     1
 43
0.0
 10
167.1803398811726
 20
70.1628808319046
 10
168.0058545983145
 20
70.1628808319046
 42
0.588000947545153
 10
168.0058545983145
 20
70.79018716399954
 10
167.1803398811726
 20
70.79018716399954
  0
LWPOLYLINE
  5
566
330
70
100
AcDbEntity
  8
grabado
100
AcDbPolyline
 90
        4
 70
     1
 43
0.0
 10
167.1803398811726
 20
69.88467229140934
 10
167.1803398811726
 20
69.13818957748205
 10
167.9292770033703
 20
69.13818957748205
 42
0.8055964497170046
 10
168.0058545983145
 20
69.88467229140934
  0
LWPOLYLINE
  5
567
330
70
100
AcDbEntity
  8
grabado
100
AcDbPolyline
 90
       16
 70
     1
 43
0.0
 10
169.1702095358914
 20
71.01987190075092
 10
169.1702095358914
 20
68.95057086010426
 10
170.6033845074237
 20
68.95057086010426
 10
170.8256500010065
 20
69.58532925176041
 10
171.694573340884
 20
69.58532925176041
 10
171.935940705009
 20
68.95057086010426
 10
173.2304088275676
 20
68.95057086010426
 42
0.8778066352158202
 10
173.3437750937738
 20
70.03098536405537
 42
0.7748338444233952
 10
173.2304088275676
 20
71.01987190075092
 10
172.1918586163303
 20
71.01987190075092
 10
172.1918586163303
 20
69.16360381099256
 10
171.3990870273351
 20
71.03923669525173
 10
171.1208784868399
 20
71.03923669525173
 10
170.3874110743379
 20
69.17810756079513
 10
169.4151721182147
 20
69.17810756079513
 10
169.4151721182147
 20
71.01987190075092
  0
LWPOLYLINE
  5
568
330
70
100
AcDbEntity
  8
grabado
100
AcDbPolyline
 90
        3
 70
     1
 43
0.0
 10
166.0176574364687
 20
70.77496965908679
 10
166.3890213703862
 20
69.79834063441633
 10
165.675683332512
 20
69.79834063441633
  0
LWPOLYLINE
  5
569
330
70
100
AcDbEntity
  8
grabado
100
AcDbPolyline
 90
        4
 70
     1
 43
0.0
 10
172.4048941104258
 20
70.1628808319046
 10
173.2304088275676
 20
70.1628808319046
 42
0.588000947545153
 10
173.2304088275676
 20
70.79018716399954
 10
172.4048941104258
 20
70.79018716399954
  0
LWPOLYLINE
  5
56A
330
70
100
AcDbEntity
  8
grabado
100
AcDbPolyline
 90
        4
 70
     1
 43
0.0
 10
172.4048941104258
 20
69.88467229140934
 10
172.4048941104258
 20
69.13818957748205
 10
173.1538312326236
 20
69.13818957748205
 42
0.8055964497170046
 10
173.2304088275676
 20
69.88467229140934
  0
LWPOLYLINE
  5
56B
330
70
100
AcDbEntity
  8
grabado
100
AcDbPolyline
 90
        3
 70
     1
 43
0.0
 10
171.2422116657219
 20
70.77496965908679
 10
171.6135755996394
 20
69.79834063441633
 10
170.9002375617651
 20
69.79834063441633
  0
LWPOLYLINE
  5
56C
330
70
100
AcDbEntity
  8
grabado
100
AcDbPolyline
 90
       23
 70
     1
 43
0.0
 10
165.2510176864638
 20
66.93496142435106
 10
165.7218149638495
 20
68.25529662455345
 10
165.8903721127151
 20
68.25529662455345
 10
166.3724928075416
 20
67.12842959743468
 10
166.3724928075416
 20
68.25529662455345
 10
166.9175342423257
 20
68.25529662455345
 42
-0.7803278152231871
 10
166.9211192358452
 20
66.93496142435106
 10
166.2684868204146
 20
66.93496142435106
 10
166.087868585348
 20
67.3950644261804
 10
165.5731507608061
 20
67.3950644261804
 10
165.4211452907501
 20
66.93496142435106
 10
165.1240749809894
 20
66.93496142435106
 10
165.1240749809894
 20
68.09476079355693
 10
164.7221865129808
 20
67.00233845539251
 10
164.5793132049921
 20
67.00233845539251
 10
164.1869513743529
 20
68.11522129888523
 10
164.1869513743529
 20
66.93496142435106
 10
164.0294777774863
 20
66.93496142435106
 10
164.0249170179822
 20
68.25529662455345
 10
164.2881430876803
 20
68.25529662455345
 10
164.643345118845
 20
67.16642704890162
 10
165.0371475238478
 20
68.25529662455345
 10
165.2510176864638
 20
68.25529662455345
  0
LWPOLYLINE
  5
56D
330
70
100
AcDbEntity
  8
grabado
100
AcDbPolyline
 90
        3
 70
     1
 43
0.0
 10
165.6081684228988
 20
67.50105884493374
 10
166.0462593700938
 20
67.50105884493374
 10
165.8083712927789
 20
68.10704980942097
  0
LWPOLYLINE
  5
56E
330
70
100
AcDbEntity
  8
grabado
100
AcDbPolyline
 90
        4
 70
     1
 43
0.0
 10
166.9175342423257
 20
68.14183669728817
 10
166.5251478171884
 20
68.14183669728817
 10
166.5251478171884
 20
67.073432741256
 10
166.9175342423257
 20
67.073432741256
 42
0.7472619752644826
  0
LWPOLYLINE
  5
56F
330
70
100
AcDbEntity
  8
grabado
100
AcDbPolyline
 90
        9
 70
     1
 43
0.0
 10
167.6703873029246
 20
67.55060656114199
 10
168.0837102781292
 20
67.55060656114199
 10
168.4712007400978
 20
66.93496142435106
 10
168.6571959407687
 20
66.93496142435106
 10
168.2232069549752
 20
67.58156472351052
 42
0.7878452929949957
 10
168.3271543574549
 20
68.25529662455345
 10
167.55161162886
 20
68.25529662455345
 10
167.55161162886
 20
66.93496142435106
 10
167.6703873029246
 20
66.93496142435106
  0
LWPOLYLINE
  5
570
330
70
100
AcDbEntity
  8
grabado
100
AcDbPolyline
 90
        4
 70
     1
 43
0.0
 10
168.2232069549752
 20
68.14913030298694
 10
167.6807203082189
 20
68.14913030298694
 10
167.6807203082189
 20
67.70539716423801
 10
168.2232069549752
 20
67.70539716423801
 42
0.8347068458579927
  0
LWPOLYLINE
  5
571
330
70
100
AcDbEntity
  8
grabado
100
AcDbPolyline
 90
        4
 70
     1
 43
0.0
 10
168.6836120897339
 20
68.25529662455345
 10
168.8491601432142
 20
68.25529662455345
 10
168.8491601432142
 20
66.93496142435106
 10
168.6836120897339
 20
66.93496142435106
  0
LWPOLYLINE
  5
572
330
70
100
AcDbEntity
  8
grabado
100
AcDbPolyline
 90
        4
 70
     1
 43
0.0
 10
169.5425102700567
 20
68.25529662455345
 10
168.9974688352726
 20
68.25529662455345
 10
168.9974688352726
 20
66.93496142435106
 10
169.5460952635763
 20
66.93496142435106
 42
0.780327815223189
  0
LWPOLYLINE
  5
573
330
70
100
AcDbEntity
  8
grabado
100
AcDbPolyline
 90
        4
 70
     1
 43
0.0
 10
169.5425102700567
 20
68.14183669728817
 10
169.1501238449193
 20
68.14183669728817
 10
169.1501238449193
 20
67.073432741256
 10
169.5425102700567
 20
67.073432741256
 42
0.7472619752644826
  0
ELLIPSE
  5
574
330
70
100
AcDbEntity
  8
grabado
100
AcDbEllipse
 10
170.98868471786
 20
67.59512902445226
 30
0.0
 11
0.0
 21
0.6601676001012002
 31
0.0
210
0.0
220
0.0
230
1.0
 40
0.937580184815021
 41
5.316903200803277
 42
10.66617624681735
  0
LWPOLYLINE
  5
575
330
70
100
AcDbEntity
  8
grabado
100
AcDbPolyline
 90
       56
 70
     0
 43
0.0
 10
171.5743677727412
 20
67.38158230634931
 10
171.4675924628429
 20
67.4205138014868
 10
171.448600172103
 20
67.36849578279737
 10
171.4248594442169
 20
67.31892218684222
 10
171.3965882555353
 20
67.27235809335738
 10
171.3641470271385
 20
67.22927641918357
 10
171.3279483335641
 20
67.19004345375845
 10
171.2884032473785
 20
67.15502102020955
 10
171.2459228411476
 20
67.1245709416644
 10
171.2009401479652
 20
67.09902294983995
 10
171.1539340145986
 20
67.07854538914884
 10
171.1053718654618
 20
67.0632570274569
 10
171.055720824492
 20
67.05327665411174
 10
171.0054480056662
 20
67.04872296063363
 10
170.9550197872977
 20
67.04966545072011
 10
170.9049029508042
 20
67.05604589811397
 10
170.8555647912509
 20
67.0677856940883
 10
170.8074726037029
 20
67.08480622991624
 10
170.7610956079227
 20
67.10702814454335
 10
170.7169104973661
 20
67.13429119658113
 10
170.6753578232411
 20
67.16629560758446
 10
170.6368704913145
 20
67.20272839510022
 10
170.6018814073529
 20
67.24327657667538
 10
170.5708262421365
 20
67.28761251551212
 10
170.5440687359559
 20
67.33526932303988
 10
170.5218657505604
 20
67.38570977136777
 10
170.5044688441137
 20
67.43839668553697
 10
170.4921295747792
 20
67.49279289058853
 10
170.4850731345359
 20
67.54832952510636
 10
170.4833362578713
 20
67.60437656981084
 10
170.4868755788072
 20
67.66032457935996
 10
170.4956474945443
 20
67.7155645911489
 10
170.5096081051993
 20
67.76948725688221
 10
170.5286317826651
 20
67.82147810062767
 10
170.5524197438825
 20
67.87101647362243
 10
170.5806533085281
 20
67.91761779910692
 10
170.6130137962776
 20
67.96079750032155
 10
170.6491776788066
 20
68.0000721426419
 10
170.6887322450607
 20
68.03504538688741
 10
170.7312185461953
 20
68.06546274043544
 10
170.7761826496146
 20
68.09108243860959
 10
170.8231706227226
 20
68.11166271673345
 10
170.8717248366973
 20
68.12698183103953
 10
170.9213714661317
 20
68.13695439772733
 10
170.9716423435413
 20
68.14152422538512
 10
171.0220705953311
 20
68.14064027760507
 10
171.0721900805189
 20
68.13431650740414
 10
171.1215328717782
 20
68.12258486106859
 10
171.1696292084069
 20
68.10551919496484
 10
171.2160165419259
 20
68.08330714304864
 10
171.2602329529388
 20
68.05614346100016
 10
171.3018165220496
 20
68.02422290449955
 10
171.3402972684952
 20
67.98776819182645
 10
171.3752605493307
 20
67.94716384159606
 10
171.4063480278248
 20
67.90285238110866
 10
171.4979516202402
 20
67.97034350198831
  0
LWPOLYLINE
  5
576
330
70
100
AcDbEntity
  8
grabado
100
AcDbPolyline
 90
       13
 70
     0
 43
0.0
 10
171.5853991930539
 20
68.25529662455345
 10
171.5853991930539
 20
66.93496142435106
 10
172.5128242771772
 20
66.93496142435106
 10
172.5128242771772
 20
67.07156873862041
 10
171.7107766936183
 20
67.07156873862041
 10
171.7107766936183
 20
67.58655094882602
 10
172.425424826747
 20
67.58655094882602
 10
172.425424826747
 20
67.7311497086296
 10
171.713210443555
 20
67.7311497086296
 10
171.713210443555
 20
68.12547472242036
 10
172.4660402913691
 20
68.12547472242036
 10
172.4660402913691
 20
68.25529662455345
 10
171.5853991930539
 20
68.25529662455345
  0
LWPOLYLINE
  5
577
330
70
100
AcDbEntity
  8
grabado
100
AcDbPolyline
 90
        8
 70
     1
 43
0.0
 10
173.5948462309228
 20
67.37383807378731
 10
173.5948462309228
 20
68.25529662455345
 10
173.4109948967228
 20
68.25529662455345
 10
173.4109948967228
 20
67.36593179686008
 42
-0.7563244185352184
 10
172.7726223159948
 20
67.36593179686008
 10
172.7726223159948
 20
68.25529662455345
 10
172.6143058739702
 20
68.25529662455345
 10
172.6143058739702
 20
67.38705089766575
 42
0.9021338582644784
  0
LWPOLYLINE
  5
578
330
70
100
AcDbEntity
  8
grabado
100
AcDbPolyline
 90
       10
 70
     1
 43
0.0
 10
179.5264343222702
 20
66.96314836595063
 10
179.7881465972308
 20
66.96314836595063
 10
179.7881465972308
 20
67.94589920966117
 10
180.7892548516406
 20
67.94589920966117
 10
180.7892548516406
 20
68.1582144135329
 10
179.7934048266519
 20
68.1582144135329
 10
179.7934048266519
 20
68.83338016067853
 10
180.9258810157989
 20
68.83338016067853
 10
180.9258810157989
 20
69.07161507125663
 10
179.5264343222702
 20
69.07161507125663
  0
LWPOLYLINE
  5
579
330
70
100
AcDbEntity
  8
grabado
100
AcDbPolyline
 90
        8
 70
     1
 43
0.0
 10
180.6244050542807
 20
66.97639036061513
 10
181.4599684527169
 20
69.09658187561465
 10
181.7423761873733
 20
69.09658187561465
 10
182.638515090901
 20
66.97639036061513
 10
182.2873329693758
 20
66.97639036061513
 10
182.0423224804772
 20
67.62072960024707
 10
181.1602838789008
 20
67.62072960024707
 10
180.9346635783045
 20
66.97639036061513
  0
LWPOLYLINE
  5
57A
330
70
100
AcDbEntity
  8
grabado
100
AcDbPolyline
 90
        6
 70
     0
 43
0.0
 10
183.7593482568687
 20
66.97639036061513
 42
0.8778066352158266
 10
183.874425638637
 20
68.07311230886199
 42
0.7748338444233952
 10
183.7593482568687
 20
69.07692479486032
 10
182.7051224880968
 20
69.07692479486032
 10
182.7051224880968
 20
66.97639036061513
 10
183.7593482568687
 20
66.97639036061513
  0
LWPOLYLINE
  5
57B
330
70
100
AcDbEntity
  8
grabado
100
AcDbPolyline
 90
        4
 70
     1
 43
0.0
 10
182.9213734744316
 20
68.20699856634511
 10
183.7593482568687
 20
68.20699856634511
 42
0.588000947545153
 10
183.7593482568687
 20
68.84377326732035
 10
182.9213734744316
 20
68.84377326732035
  0
LWPOLYLINE
  5
57C
330
70
100
AcDbEntity
  8
grabado
100
AcDbPolyline
 90
        4
 70
     1
 43
0.0
 10
182.9213734744316
 20
67.92459083168863
 10
182.9213734744316
 20
67.16684093722034
 10
183.6816148232541
 20
67.16684093722034
 42
0.8055964497170046
 10
183.7593482568687
 20
67.92459083168863
  0
LWPOLYLINE
  5
57D
330
70
100
AcDbEntity
  8
grabado
100
AcDbPolyline
 90
        6
 70
     1
 43
0.0
 10
184.8210581186347
 20
69.11813967549406
 10
184.8210581186347
 20
66.93517547998138
 10
186.1527068606908
 20
66.93517547998138
 10
186.1527068606908
 20
67.24857631093252
 10
185.1521478521174
 20
67.24857631093252
 10
185.1521478521174
 20
69.11813967549406
  0
LWPOLYLINE
  5
57E
330
70
100
AcDbEntity
  8
grabado
100
AcDbPolyline
 90
        3
 70
     1
 43
0.0
 10
181.5831329972911
 20
68.8283260740678
 10
181.9601021842329
 20
67.83695611121193
 10
181.235997241366
 20
67.83695611121193
  0
LWPOLYLINE
  5
57F
330
70
100
AcDbEntity
  8
grabado
100
AcDbPolyline
 90
        8
 70
     1
 43
0.0
 10
186.2096712438763
 20
66.93517547998138
 10
187.0777200526963
 20
69.13779675624837
 10
187.415510039568
 20
69.13779675624837
 10
188.3464894352671
 20
66.93517547998138
 10
187.9047199111203
 20
66.93517547998138
 10
187.6597094222218
 20
67.57951471961331
 10
186.8353296195257
 20
67.57951471961331
 10
186.6097093189292
 20
66.93517547998138
  0
LWPOLYLINE
  5
580
330
70
100
AcDbEntity
  8
grabado
100
AcDbPolyline
 90
        5
 70
     1
 43
0.0
 10
189.5393604558478
 20
66.93517547998138
 42
0.8041902965252754
 10
189.7616473014061
 20
68.08054268279099
 42
0.7054755783544673
 10
189.5416449144466
 20
69.11813967549406
 10
188.4434053905722
 20
69.11813967549406
 10
188.4434053905722
 20
66.93517547998138
  0
LWPOLYLINE
  5
581
330
70
100
AcDbEntity
  8
grabado
100
AcDbPolyline
 90
        4
 70
     1
 43
0.0
 10
188.7420861381748
 20
68.24821344697887
 10
189.5278091945224
 20
68.24821344697887
 42
0.5665570923327148
 10
189.5278091945224
 20
68.80255838668661
 10
188.7420861381748
 20
68.80255838668661
  0
LWPOLYLINE
  5
582
330
70
100
AcDbEntity
  8
grabado
100
AcDbPolyline
 90
        4
 70
     1
 43
0.0
 10
188.7420861381748
 20
67.88337595105488
 10
188.7420861381748
 20
67.20805581785409
 10
189.4587314340481
 20
67.20805581785409
 42
0.7954115960178595
 10
189.5320750081994
 20
67.88337595105488
  0
LWPOLYLINE
  5
583
330
70
100
AcDbEntity
  8
grabado
100
AcDbPolyline
 90
        3
 70
     1
 43
0.0
 10
187.2305371219702
 20
68.70817070025376
 10
187.5461451461826
 20
67.87817099184564
 10
186.9399063917777
 20
67.87817099184564
  0
LWPOLYLINE
  5
584
330
70
100
AcDbEntity
  8
grabado
100
AcDbPolyline
 90
       13
 70
     0
 43
0.0
 10
192.3240949452463
 20
69.04769780901045
 10
192.3240949452463
 20
66.90488666699072
 10
193.8292406107887
 20
66.90488666699072
 10
193.8292406107887
 20
67.12659072748452
 10
192.5275738081342
 20
67.12659072748452
 10
192.5275738081342
 20
67.96237062474194
 10
193.687397451446
 20
67.96237062474194
 10
193.687397451446
 20
68.19704423912551
 10
192.5315236130625
 20
68.19704423912551
 10
192.5315236130625
 20
68.83700599504812
 10
193.7533134931582
 20
68.83700599504812
 10
193.7533134931582
 20
69.04769780901045
 10
192.3240949452463
 20
69.04769780901045
  0
LWPOLYLINE
  5
585
330
70
100
AcDbEntity
  8
grabado
100
AcDbPolyline
 90
        8
 70
     1
 43
0.0
 10
192.0482822243037
 20
67.61715259327985
 10
192.0482822243037
 20
69.04769780901045
 10
191.7499044431624
 20
69.04769780901045
 10
191.7499044431624
 20
67.60432126204745
 42
-0.7563244185352184
 10
190.7138706552773
 20
67.60432126204745
 10
190.7138706552773
 20
69.04769780901045
 10
190.4569342077122
 20
69.04769780901045
 10
190.4569342077122
 20
67.63859607688911
 42
0.9021338582644784
  0
LWPOLYLINE
  5
670
330
70
100
AcDbEntity
  8
grabado
100
AcDbPolyline
 90
        6
 70
     1
 43
0.0
 10
145.309855708373
 20
79.85471617301747
 42
-1.792099551452108
 10
145.309855708373
 20
77.00547540586216
 10
145.309855708373
 20
76.75609256846479
 10
144.5149475619897
 20
76.75609256846479
 10
144.5149475619897
 20
81.84466088081983
 10
145.309855708373
 20
81.84466088081983
  0
CIRCLE
  5
671
330
70
100
AcDbEntity
  8
grabado
100
AcDbCircle
 10
142.3335928479129
 20
78.43009578943981
 30
0.0
 40
0.8790583294240295
  0
LWPOLYLINE
  5
672
330
70
100
AcDbEntity
  8
grabado
100
AcDbPolyline
 90
        6
 70
     1
 43
0.0
 10
143.2126511773369
 20
76.75609256846479
 10
143.2126511773369
 20
77.00547540586216
 42
-1.792099551452097
 10
143.2126511773369
 20
79.85471617301747
 10
143.2126511773369
 20
80.10066550332849
 10
144.0075593237201
 20
80.10066550332849
 10
144.0075593237201
 20
76.75609256846479
  0
CIRCLE
  5
673
330
70
100
AcDbEntity
  8
grabado
100
AcDbCircle
 10
146.188914037797
 20
78.43009578943981
 30
0.0
 40
0.8790583294240295
  0
ARC
  5
674
330
70
100
AcDbEntity
  8
grabado
100
AcDbCircle
 10
146.188914037797
 20
78.43009578943981
 30
0.0
 40
1.674003220975011
100
AcDbArc
 50
177.7213095211933
 51
180.3796298888467
  0
LWPOLYLINE
  5
675
330
70
100
AcDbEntity
  8
grabado
100
AcDbPolyline
 90
       13
 70
     0
 43
0.0
 10
137.512990645843
 20
80.18174917499925
 10
137.512990645843
 20
76.75609256846479
 10
138.3078987922261
 20
76.75609256846479
 10
138.3078987922261
 20
78.74603727626716
 42
0.1391019420095039
 10
139.1869571216501
 20
78.4966544388698
 10
140.0888879772703
 20
78.4966544388698
 10
140.0888879772703
 20
79.29159933042078
 10
139.1869571216501
 20
79.29159933042078
 42
-0.9999999999999998
 10
139.1869571216501
 20
81.04971598926885
 10
140.0888879772703
 20
81.04971598926885
 10
140.0888879772703
 20
81.84466088081983
 10
139.1869571216501
 20
81.84466088081983
 42
0.4161555459883662
 10
137.512990645843
 20
80.15956614469036
  0
LWPOLYLINE
  5
676
330
70
100
AcDbEntity
  8
grabado
100
AcDbPolyline
 90
        6
 70
     1
 43
0.0
 10
145.309855708373
 20
74.10979405836193
 42
-1.792099551452108
 10
145.309855708373
 20
71.26055329120662
 10
145.309855708373
 20
71.01117045380926
 10
144.5149475619897
 20
71.01117045380926
 10
144.5149475619897
 20
76.09973876616429
 10
145.309855708373
 20
76.09973876616429
  0
CIRCLE
  5
677
330
70
100
AcDbEntity
  8
grabado
100
AcDbCircle
 10
142.3335928479129
 20
72.68517367478428
 30
0.0
 40
0.8790583294240295
  0
LWPOLYLINE
  5
678
330
70
100
AcDbEntity
  8
grabado
100
AcDbPolyline
 90
        6
 70
     1
 43
0.0
 10
143.2126511773369
 20
71.01117045380926
 10
143.2126511773369
 20
71.26055329120662
 42
-1.792099551452097
 10
143.2126511773369
 20
74.10979405836193
 10
143.2126511773369
 20
74.35574338867297
 10
144.0075593237201
 20
74.35574338867297
 10
144.0075593237201
 20
71.01117045380926
  0
CIRCLE
  5
679
330
70
100
AcDbEntity
  8
grabado
100
AcDbCircle
 10
146.188914037797
 20
72.68517367478428
 30
0.0
 40
0.8790583294240295
  0
ARC
  5
67A
330
70
100
AcDbEntity
  8
grabado
100
AcDbCircle
 10
146.188914037797
 20
72.68517367478428
 30
0.0
 40
1.674003220975011
100
AcDbArc
 50
177.7213095211933
 51
180.3796298888467
  0
LWPOLYLINE
  5
67B
330
70
100
AcDbEntity
  8
grabado
100
AcDbPolyline
 90
        8
 70
     0
 43
0.0
 10
137.4975130378967
 20
70.53214249336519
 10
137.4975130378967
 20
74.34225797062431
 10
138.9983998139246
 20
74.34225797062431
 10
138.9983998139246
 20
70.53214249336519
 42
0.4142135623730951
 10
141.0488451316033
 20
68.48169717568641
 10
145.1134285982802
 20
68.48169717568641
 10
145.1134285982802
 20
66.98081039965861
 10
141.0488451316033
 20
66.98081039965861
  0
ARC
  5
67C
330
70
100
AcDbEntity
  8
grabado
100
AcDbCircle
 10
141.0488451316033
 20
70.53214249336519
 30
0.0
 40
3.551330765487837
100
AcDbArc
 50
180.0
 51
270.0
  0
LWPOLYLINE
  5
67D
330
70
100
AcDbEntity
  8
grabado
100
AcDbPolyline
 90
        2
 70
     1
 43
0.0
 10
147.219888587892
 20
69.14124143597503
 10
148.68709656409
 20
69.14124143597503
 42
0.5380769053259915
  0
LWPOLYLINE
  5
67E
330
70
100
AcDbEntity
  8
grabado
100
AcDbPolyline
 90
        4
 70
     1
 43
0.0
 10
148.6794034113461
 20
68.16113927979192
 10
149.335854856002
 20
67.71279913948285
 42
-9.660910183058563
 10
149.5984244296131
 20
68.34629654442405
 10
147.131143765719
 20
68.34629654442405
 42
0.6066660738277907
  0
LWPOLYLINE
  5
67F
330
70
100
AcDbEntity
  8
grabado
100
AcDbPolyline
 90
       10
 70
     1
 43
0.0
 10
154.8598755207765
 20
68.65691847020205
 10
154.8598755207765
 20
66.98081039965861
 10
154.0649306292255
 20
66.98081039965861
 10
154.0649306292255
 20
70.33092169117708
 10
154.8598755207765
 20
70.33092169117708
 10
154.8598755207765
 20
70.06842401494402
 42
-0.5844962528059511
 10
157.3661472435245
 20
68.65691847020205
 10
157.3661472435245
 20
66.98081039965861
 10
156.5712023519735
 20
66.98081039965861
 10
156.5712023519735
 20
68.65691847020205
 42
0.9999999999999994
  0
LWPOLYLINE
  5
680
330
70
100
AcDbEntity
  8
grabado
100
AcDbPolyline
 90
        7
 70
     0
 43
0.0
 10
152.7220656148608
 20
80.43510090769411
 10
156.3695329545711
 20
81.78683737775813
 10
156.7011208732782
 20
80.99169825771786
 10
157.3782571560807
 20
71.08622293454388
 10
157.0864598110116
 20
70.83442887095853
 10
152.0065325221271
 20
71.21874611312094
 10
152.7220656148608
 20
80.43510090769411
  0
LWPOLYLINE
  5
681
330
70
100
AcDbEntity
  8
grabado
100
AcDbPolyline
 90
       42
 70
     1
 43
0.0
 10
153.3685721500331
 20
69.54577152917631
 10
153.2726919676966
 20
69.47827929790664
 10
151.981048387858
 20
70.21671492096172
 10
151.4552869182552
 20
69.91649460683991
 10
151.6579781038142
 20
69.80955645100094
 10
151.7243189535562
 20
69.83039799399591
 10
151.7956511373101
 20
69.84415980070728
 10
151.8763139950447
 20
69.8545743501913
 10
151.9991402464579
 20
69.85100908631183
 10
152.0955874446686
 20
69.83368290027785
 10
152.171809179049
 20
69.80984127062635
 10
152.2023332906943
 20
69.79739211367112
 10
152.2371658220498
 20
69.78084488988611
 10
152.3014452579521
 20
69.74244496008006
 10
152.3696990283858
 20
69.6860892950926
 10
152.4163323695252
 20
69.63192978888378
 10
152.4593035950962
 20
69.5560860913246
 10
152.4827388563714
 20
69.47075949630875
 10
152.4816753000937
 20
69.37800525751789
 10
152.4577561016083
 20
69.2966075979279
 10
152.3913041694592
 20
69.1939291482388
 10
152.3279334715555
 20
69.13498315640755
 10
152.2447253758953
 20
69.08200765961386
 10
152.1619533771818
 20
69.04641573269784
 10
152.0709162679053
 20
69.02160556606779
 10
151.9667246015717
 20
69.0083605576808
 10
151.8678826453319
 20
69.00938488619849
 10
151.7784324534819
 20
69.02171510997561
 10
151.7181326193835
 20
69.03659686224013
 10
151.6312554304165
 20
69.0687808740317
 10
151.5664950782366
 20
69.10295399064271
 10
151.5118952251295
 20
69.14092193920932
 10
151.4656531646568
 20
69.18251841103414
 10
151.4247740059438
 20
69.23088350009651
 10
151.3910050875074
 20
69.28658770293271
 10
151.3698902575538
 20
69.33956159964977
 10
151.3570465430629
 20
69.40325824214923
 10
151.356627626925
 20
69.46188621591307
 10
151.3609834705855
 20
69.50584311466058
 10
151.0364525171958
 20
69.6770483826177
 10
150.6270477756993
 20
69.44299074466892
 10
150.5549456206748
 20
69.48987636593719
 42
-0.529777980499569
  0
LWPOLYLINE
  5
682
330
70
100
AcDbEntity
  8
grabado
100
AcDbPolyline
 90
       42
 70
     1
 43
0.0
 10
152.1832458959536
 20
66.87411157000588
 10
152.1714476626953
 20
66.97770146751847
 10
153.4386928676867
 20
67.75726538225619
 10
153.4272572164245
 20
68.36259718037223
 10
153.2362413120211
 20
68.23597802644005
 10
153.2227294839803
 20
68.16776579321254
 10
153.2006116803719
 20
68.09856701774193
 10
153.171083356121
 20
68.0227841864028
 10
153.1090739361824
 20
67.91670011134133
 10
153.0476334385991
 20
67.84036320007345
 10
152.9901706357476
 20
67.78489967706217
 10
152.9646125007361
 20
67.76407938322754
 10
152.9333925003627
 20
67.74144252319103
 10
152.8688781354802
 20
67.7034386126971
 10
152.7867004707073
 20
67.67055442854894
 10
152.7168145843396
 20
67.65559169132602
 10
152.6296540442201
 20
67.65423783292206
 10
152.5435364075183
 20
67.67457479279676
 10
152.4626444749534
 20
67.71997275763574
 10
152.4026757080945
 20
67.77998487344871
 10
152.3444201345271
 20
67.88752561672885
 10
152.3230673937021
 20
67.97139775611381
 10
152.3164640649903
 20
68.06981719775977
 10
152.3249076246464
 20
68.15952057190448
 10
152.3467754673928
 20
68.25130889952436
 10
152.3850990145271
 20
68.34909764793422
 10
152.4333808862919
 20
68.43535100973014
 10
152.4870826628766
 20
68.50794226562283
 10
152.5290495637959
 20
68.55372780668066
 10
152.5989417185891
 20
68.61454345660897
 10
152.6599771440194
 20
68.65499567479182
 10
152.7194721951279
 20
68.68471179787798
 10
152.7781451006649
 20
68.70535361903982
 10
152.8401873219861
 20
68.71804417579017
 10
152.905261890774
 20
68.72097650644064
 10
152.9618741992541
 20
68.71411237460121
 10
153.0239318537447
 20
68.6948491768718
 10
153.0755850014698
 20
68.66711170891839
 10
153.1120737821427
 20
68.64221690611735
 10
153.4178985798989
 20
68.84495510321325
 10
153.4087486094594
 20
69.31645430605768
 10
153.4844601372113
 20
69.35725561493815
 42
-0.5261912403077151
  0
LWPOLYLINE
  5
683
330
70
100
AcDbEntity
  8
grabado
100
AcDbPolyline
 90
       42
 70
     1
 43
0.0
 10
150.4678077392361
 20
69.33959924954359
 10
150.5668932500356
 20
69.28818691261577
 10
150.5065962329215
 20
67.80158186201818
 10
151.0152869506034
 20
67.47326629175948
 10
151.0168136707228
 20
67.70243250873568
 10
150.9677508917044
 20
67.75171051573554
 10
150.9226720305291
 20
67.8086803677472
 10
150.8762651038689
 20
67.87547375527019
 10
150.822840019627
 20
67.98612979675247
 10
150.7937818778805
 20
68.07971335921635
 10
150.7798248873706
 20
68.1583478205694
 10
150.7768107430698
 20
68.19117491052214
 10
150.7754487977117
 20
68.22971399406688
 10
150.7799150492227
 20
68.30445657287214
 10
150.7984866811675
 20
68.39099923657916
 10
150.8250702520854
 20
68.45734103619199
 10
150.8725866848699
 20
68.53042305382937
 10
150.9375203368433
 20
68.59053511692337
 10
151.0203336064253
 20
68.63232557452758
 10
151.1035976556179
 20
68.64859840940546
 10
151.2253452853964
 20
68.63692630761405
 10
151.3068589239559
 20
68.60784019349488
 10
151.3922131291765
 20
68.55839679054645
 10
151.4619377684612
 20
68.50133135697032
 10
151.5259011071781
 20
68.43196284153411
 10
151.5856605483145
 20
68.34559072348911
 10
151.6302905997
 20
68.25739242375746
 10
151.6605591548587
 20
68.17232077272713
 10
151.6751327568786
 20
68.11194572269063
 10
151.6865947934917
 20
68.02001053739956
 10
151.6861015864447
 20
67.94678853346521
 10
151.677559088463
 20
67.88083601413567
 10
151.6619454614951
 20
67.82062962512296
 10
151.6378535689381
 20
67.76206454875389
 10
151.6039720247697
 20
67.70642877761028
 10
151.5666836575184
 20
67.66328196492266
 10
151.5160676770856
 20
67.6225358510903
 10
151.4642259082562
 20
67.59515253859847
 10
151.4232054690456
 20
67.5787663893112
 10
151.4207739081492
 20
67.21185267875255
 10
151.8171337689506
 20
66.95632561367403
 10
151.8087402520273
 20
66.87073045543162
 42
-0.5282200191233379
  0
LWPOLYLINE
  5
684
330
70
100
AcDbEntity
  8
grabado
100
AcDbPolyline
 90
       42
 70
     1
 43
0.0
 10
244.3007862322372
 20
76.51115087626111
 10
244.1592822161689
 20
76.41154299541104
 10
242.2530201563566
 20
77.50135742550303
 10
241.4770792097524
 20
77.05827962654327
 10
241.7762194082719
 20
76.90045578689897
 10
241.8741280317133
 20
76.93121461487549
 10
241.9794030763593
 20
76.95152486951376
 10
242.0984487231113
 20
76.96689510079214
 10
242.279720884157
 20
76.96163333402252
 10
242.4220617261618
 20
76.93606261808081
 10
242.5345529757994
 20
76.90087613571207
 10
242.5796017468745
 20
76.88250314493441
 10
242.6310090654313
 20
76.85808205432635
 10
242.7258753674045
 20
76.80140981871018
 10
242.8266071598647
 20
76.71823775197442
 10
242.8954306111045
 20
76.63830686896962
 10
242.9588493577678
 20
76.52637354201345
 10
242.9934361045521
 20
76.40044495512568
 10
242.99186646335
 20
76.26355433835358
 10
242.9565655016257
 20
76.14342424003861
 10
242.8584929380835
 20
75.99188705434913
 10
242.7649677899675
 20
75.90489207403114
 10
242.6421657737595
 20
75.82670860204716
 10
242.5200073678143
 20
75.77418053550101
 10
242.3856509631859
 20
75.73756464541905
 10
242.2318805085647
 20
75.71801710353977
 10
242.0860053816809
 20
75.71952885075903
 10
241.9539910167056
 20
75.73772631493738
 10
241.8649979788825
 20
75.75968943244759
 10
241.7367809600575
 20
75.80718795415164
 10
241.6412049015635
 20
75.8576220806227
 10
241.560624136038
 20
75.91365678011037
 10
241.4923781533049
 20
75.97504660722633
 10
241.4320469671265
 20
76.0464258450735
 10
241.3822093733652
 20
76.12863645649618
 10
241.3510472169712
 20
76.20681756701952
 10
241.3320919215457
 20
76.30082375791416
 10
241.3314736674449
 20
76.38734939375844
 10
241.3379022051918
 20
76.45222283845886
 10
240.8589457396943
 20
76.70489479211615
 10
240.2547289588397
 20
76.35946266053169
 10
240.1483175581256
 20
76.42865843742363
 42
-0.529777980499569
  0
LWPOLYLINE
  5
685
330
70
100
AcDbEntity
  8
grabado
100
AcDbPolyline
 90
       42
 70
     1
 43
0.0
 10
242.5514317648589
 20
72.56820245273182
 10
242.5340194347206
 20
72.72108479155221
 10
244.4042733441282
 20
73.87159808876465
 10
244.3873961277885
 20
74.76497228142754
 10
244.1054868015095
 20
74.57810239490938
 10
244.0855454759342
 20
74.47743190480951
 10
244.0529030887285
 20
74.37530543406778
 10
244.0093239426791
 20
74.26346193604572
 10
243.9178078259846
 20
74.10689858482676
 10
243.8271313488923
 20
73.99423735228193
 10
243.7423253214122
 20
73.91238194629356
 10
243.704605548053
 20
73.88165447872388
 10
243.6585297550495
 20
73.8482460461544
 10
243.5633167349812
 20
73.79215827253791
 10
243.442035472127
 20
73.74362640694589
 10
243.3388949341497
 20
73.72154376841914
 10
243.2102597337461
 20
73.71954568709853
 10
243.0831636941825
 20
73.74955983002942
 10
242.9637799691359
 20
73.81656006083311
 10
242.8752755343053
 20
73.90512847187848
 10
242.7892995023738
 20
74.06384163547783
 10
242.7577862270838
 20
74.18762367541551
 10
242.748040756129
 20
74.33287523744552
 10
242.7605021175085
 20
74.46526325952716
 10
242.7927756019344
 20
74.60072834386354
 10
242.8493351087824
 20
74.74504910222136
 10
242.9205915310329
 20
74.87234545060203
 10
242.9998468773572
 20
74.97947868700116
 10
243.061783399351
 20
75.04705091913151
 10
243.1649331885345
 20
75.13680521970697
 10
243.2550118430628
 20
75.19650630904838
 10
243.3428171482145
 20
75.24036261653761
 10
243.4294090962644
 20
75.27082668661115
 10
243.5209736226223
 20
75.28955594538555
 10
243.617013415236
 20
75.29388360260695
 10
243.7005642472601
 20
75.28375322739877
 10
243.7921515505402
 20
75.25532378791915
 10
243.8683834440094
 20
75.21438766310878
 10
243.9222351251471
 20
75.17764686339681
 10
244.373584257379
 20
75.47685644352488
 10
244.3600803451778
 20
76.17271484877194
 10
244.471818610359
 20
76.23293114088501
 42
-0.5261912403077151
  0
LWPOLYLINE
  5
686
330
70
100
AcDbEntity
  8
grabado
100
AcDbPolyline
 90
       42
 70
     1
 43
0.0
 10
240.0197157983582
 20
76.20687313232041
 10
240.1659503733315
 20
76.13099663758025
 10
240.0769614929321
 20
73.93700221828872
 10
240.8277087040296
 20
73.45246025563056
 10
240.8299619019591
 20
73.79067342188732
 10
240.7575529838553
 20
73.86339998252158
 10
240.6910236996941
 20
73.94747849236607
 10
240.6225344004896
 20
74.04605499014671
 10
240.543687408392
 20
74.20936584219545
 10
240.5008021775091
 20
74.34748040981428
 10
240.4802038623905
 20
74.46353246365543
 10
240.4757554611343
 20
74.51198006722636
 10
240.4737454447456
 20
74.56885767179783
 10
240.4803369270541
 20
74.67916592126615
 10
240.5077457245874
 20
74.80688923360627
 10
240.5469788794961
 20
74.90479925890703
 10
240.6171056346235
 20
75.01265678218295
 10
240.7129374562607
 20
75.10137269964023
 10
240.8351567714941
 20
75.16304881914924
 10
240.9580413662843
 20
75.18706495503796
 10
241.1377216520391
 20
75.16983877503706
 10
241.2580229170077
 20
75.12691226134702
 10
241.3839922522002
 20
75.05394160239759
 10
241.4868948149325
 20
74.96972202924986
 10
241.5812946073506
 20
74.86734504910957
 10
241.6694901104538
 20
74.73987343524878
 10
241.7353570222021
 20
74.60970666545048
 10
241.7800286322388
 20
74.4841543356468
 10
241.801536968624
 20
74.39505029097047
 10
241.8184531255771
 20
74.25936846789035
 10
241.8177252298199
 20
74.15130434693448
 10
241.8051178510873
 20
74.05396883789056
 10
241.7820746020287
 20
73.9651137102651
 10
241.7465187711112
 20
73.87868090104821
 10
241.696514959546
 20
73.796571284003
 10
241.6414832148195
 20
73.73289339846853
 10
241.5667820165741
 20
73.67275856553487
 10
241.4902717481258
 20
73.63234511828835
 10
241.4297320542317
 20
73.60816174821606
 10
241.4261434541294
 20
73.06665502253688
 10
242.0111080499911
 20
72.68953740509378
 10
241.9987205437867
 20
72.56321246127185
 42
-0.5282200191233379
  0
LWPOLYLINE
  5
687
330
70
100
AcDbEntity
  8
grabado
100
AcDbPolyline
 90
        4
 70
     1
 43
0.0
 10
205.0746099000672
 20
76.60687325967568
 10
204.6161795162979
 20
76.60687325967568
 10
204.6161795162979
 20
73.68209459537428
 10
205.0746099000672
 20
73.68209459537428
 42
0.9999999999999998
  0
LWPOLYLINE
  5
688
330
70
100
AcDbEntity
  8
grabado
100
AcDbPolyline
 90
        6
 70
     1
 43
0.0
 10
205.1757564222493
 20
73.02805850291287
 10
203.7333050996392
 20
73.02805850291287
 10
203.7333050996392
 20
77.26090935213711
 10
205.1757564222493
 20
77.26090935213711
 42
-0.1008614423162687
 10
206.4955000145673
 20
76.90714246461586
 42
-0.4783419811621664
 10
206.4955000145673
 20
73.38182539043413
 42
-0.1008614423162668
  0
LWPOLYLINE
  5
689
330
70
100
AcDbEntity
  8
grabado
100
AcDbPolyline
 90
        2
 70
     1
 43
0.0
 10
208.4386023405389
 20
74.92802165572662
 10
209.8719345020013
 20
74.92802165572662
 42
0.9999999999999998
  0
LWPOLYLINE
  5
68A
330
70
100
AcDbEntity
  8
grabado
100
AcDbPolyline
 90
        8
 70
     1
 43
0.0
 10
209.4599825405984
 20
73.02805850291287
 42
0.1338066850368565
 10
210.3478702867418
 20
73.32815730315764
 10
210.3478702867418
 20
74.03092200574532
 42
-0.6915864212826445
 10
208.4248169108715
 20
74.42139077800781
 10
210.5688550986275
 20
74.42139077800781
 10
210.5688550986275
 20
75.22938141830856
 42
0.8385356209241956
 10
207.7066919106866
 20
74.92802165572662
 10
207.7188940638962
 20
74.32589765090718
 42
0.3724986092688302
  0
LWPOLYLINE
  5
68B
330
70
100
AcDbEntity
  8
grabado
100
AcDbPolyline
 90
       11
 70
     1
 43
0.0
 10
213.9052142803429
 20
73.02805850291287
 10
213.9052142803429
 20
76.28673472484057
 10
213.080695686901
 20
76.28673472484057
 10
213.080695686901
 20
74.24180548306818
 42
-0.9999999999999998
 10
211.8897244683484
 20
74.24180548306818
 10
211.8897244683484
 20
76.28673472484057
 10
211.0835283441437
 20
76.28673472484057
 10
211.0835283441437
 20
74.02518549724094
 42
0.3536884495875767
 10
211.8897244683484
 20
73.02805850291287
 42
0.1880301856537018
 10
213.080695686901
 20
73.49235079852468
 10
213.080695686901
 20
73.02805850291287
  0
ELLIPSE
  5
68C
330
70
100
AcDbEntity
  8
grabado
100
AcDbEllipse
 10
220.6098808106342
 20
74.66994244573054
 30
0.0
 11
0.0
 21
0.9702811887225696
 31
0.0
210
0.0
220
0.0
230
1.0
 40
0.7992278408334073
 41
0.0
 42
6.283185307179586
  0
LWPOLYLINE
  5
68D
330
70
100
AcDbEntity
  8
grabado
100
AcDbPolyline
 90
       21
 70
     0
 43
0.0
 10
219.0176383430754
 20
74.42139077800781
 10
219.0217306636382
 20
74.90814440851643
 10
219.1464609452587
 20
75.42581682107392
 10
219.4055157045525
 20
75.82365762789483
 10
219.7605169110184
 20
76.09208038333666
 10
220.1642687772891
 20
76.26596395639514
 10
220.6248108762377
 20
76.28034372837944
 10
221.1381234214283
 20
76.22761786326354
 10
221.6658278838428
 20
75.94481533583745
 10
222.0592076193258
 20
75.4846621147377
 10
222.2367083471879
 20
75.01492234447475
 10
222.2272771659758
 20
74.20778935691298
 10
222.006600686441
 20
73.73325636382897
 10
221.766735067027
 20
73.39293474846589
 10
221.2390306046125
 20
73.124511993024
 10
220.8598067388705
 20
73.02752247190411
 10
220.130615186059
 20
73.05148879305142
 10
219.5549375000584
 20
73.34867109246181
 10
219.2239229053857
 20
73.77527144325116
 10
219.0532720411727
 20
74.12952810498738
 10
219.0176383430754
 20
74.42139077800781
  0
LWPOLYLINE
  5
68E
330
70
100
AcDbEntity
  8
grabado
100
AcDbPolyline
 90
        6
 70
     1
 43
0.0
 10
231.4805538520983
 20
77.26090935213711
 10
231.0120237767162
 20
77.26090935213711
 10
231.0120237767162
 20
73.02805850291287
 10
233.0887518333543
 20
73.02805850291287
 10
233.0887518333543
 20
73.45376743558388
 10
231.4805538520983
 20
73.45376743558388
  0
LWPOLYLINE
  5
68F
330
70
100
AcDbEntity
  8
grabado
100
AcDbPolyline
 90
       17
 70
     1
 43
0.0
 10
228.2372818771378
 20
74.03805606244539
 10
228.2372818771378
 20
75.22501632357979
 10
228.4051933941106
 20
75.56866432295
 10
228.7131127241908
 20
75.82084403446351
 10
229.0210320542708
 20
75.88641073047118
 10
229.3592382455379
 20
75.88641073047118
 10
229.6570618721359
 20
75.66953618685129
 10
229.8337368076952
 20
75.31144097165706
 10
229.9346938425129
 20
74.76168920469838
 10
229.9346938425129
 20
74.34811446953457
 10
229.8490719178182
 20
73.75689473089448
 10
229.6471578481834
 20
73.51480219541901
 10
229.3644779014371
 20
73.35340727528957
 10
228.9354101295761
 20
73.37358162736556
 10
228.6931129967566
 20
73.4694098514874
 10
228.395289370158
 20
73.77202554671199
 10
228.2791886554892
 20
73.94350774640033
  0
LWPOLYLINE
  5
690
330
70
100
AcDbEntity
  8
grabado
100
AcDbPolyline
 90
       18
 70
     1
 43
0.0
 10
228.2372818771378
 20
73.02805850291287
 10
227.8067404910016
 20
73.02805850291287
 10
227.8067404910016
 20
77.578341366809
 10
228.2372818771378
 20
77.578341366809
 10
228.2372818771378
 20
75.76120236359561
 10
228.504767295367
 20
76.02090989618059
 10
228.9900073889135
 20
76.22386223001386
 10
229.5006900111982
 20
76.26000457109551
 10
230.0486173500651
 20
75.89672037283562
 10
230.3100871635166
 20
75.46928533970642
 10
230.4317195451504
 20
74.80694797169984
 10
230.4317195451504
 20
74.31231097292474
 10
230.2519082588466
 20
73.65206899129823
 10
229.864035134758
 20
73.19350698932469
 10
229.4854493159612
 20
73.02805850291287
 10
228.8294888814348
 20
73.02805850291287
 10
228.4125874454864
 20
73.23730614723375
 10
228.2372818771378
 20
73.42034674276643
  0
LWPOLYLINE
  5
691
330
70
100
AcDbEntity
  8
grabado
100
AcDbPolyline
 90
       16
 70
     1
 43
0.0
 10
218.1103069644653
 20
75.59201200344303
 10
218.1103069644653
 20
73.93672637329406
 42
0.4133728864958651
 10
218.4108871371169
 20
73.63664396919896
 10
218.9175372607987
 20
73.63664396919896
 10
218.9175372607987
 20
73.04734019462038
 10
218.1103069644653
 20
73.04734019462038
 42
-0.336670892825908
 10
217.3155724784898
 20
73.93672637329406
 10
217.3155724784898
 20
75.59201200344303
 10
216.7233978900569
 20
75.59201200344303
 10
216.7233978900569
 20
76.20178040258675
 10
217.3155724784898
 20
76.20178040258675
 10
217.3155724784898
 20
76.77936854681703
 10
218.1103069644653
 20
77.05014284890658
 10
218.1103069644653
 20
76.20178040258675
 10
218.9253016526574
 20
76.20178040258675
 10
218.9253016526574
 20
75.59201200344303
  0
LWPOLYLINE
  5
692
330
70
100
AcDbEntity
  8
grabado
100
AcDbPolyline
 90
       37
 70
     0
 43
0.0
 10
215.1519280995036
 20
76.22509847611404
 10
215.4126523899905
 20
76.30438241060726
 10
216.0984712771784
 20
76.27040355196136
 10
216.4952259682243
 20
76.20244583466948
 10
216.41587488046
 20
75.51720617427555
 10
215.8887581688
 20
75.64745839673761
 10
215.5033392406102
 20
75.68143725538361
 10
215.3276336700566
 20
75.5851638915674
 10
215.197271400184
 20
75.43792223978234
 10
215.1696372052671
 20
75.27686965479045
 10
215.2777104998411
 20
75.15312010344057
 10
215.5069599647237
 20
75.06104854777702
 10
215.8935374448676
 20
74.96673152115734
 10
216.2855126105875
 20
74.79232454663493
 10
216.5462371503327
 20
74.5488096345545
 10
216.6765994202052
 20
74.01647473454637
 10
216.5745768067301
 20
73.71632842589633
 10
216.4102069990321
 20
73.39352957932269
 10
215.9567732444504
 20
73.11037269999562
 10
215.6393693919103
 20
73.04241498270378
 10
215.0499054860284
 20
73.05940441202674
 10
214.5964714821881
 20
73.12169891719706
 10
214.4037620180933
 20
73.20664596029098
 10
214.5057848808264
 20
73.77862293106661
 10
215.0102300667753
 20
73.62005506208015
 10
215.3049618950872
 20
73.65969702932675
 10
215.6166978661992
 20
73.75597039314297
 10
215.7243883611026
 20
73.94285390865381
 10
215.7452169045604
 20
74.10764138213391
 10
215.4488942780123
 20
74.34493668972068
 10
215.0497564296453
 20
74.48219002788828
 10
214.6898900030338
 20
74.6666046909289
 10
214.4331423273318
 20
74.91809048562335
 10
214.3414150731289
 20
75.60781642949102
 10
214.5794678379047
 20
75.94194149326613
 10
214.8005167091387
 20
76.08352003645048
 10
215.1519280995036
 20
76.22509847611404
  0
LWPOLYLINE
  5
693
330
70
100
AcDbEntity
  8
grabado
100
AcDbPolyline
 90
       10
 70
     1
 43
0.0
 10
223.2005368308736
 20
75.43120456418929
 10
223.2005368308736
 20
76.87639385382898
 10
224.7758349775923
 20
76.87639385382898
 10
224.7758349775923
 20
77.26090935213711
 10
222.7277170224611
 20
77.26090935213711
 10
222.7277170224611
 20
73.04734019462038
 10
223.2005368308736
 20
73.04734019462038
 10
223.2005368308736
 20
75.05027502844267
 10
224.6912504653833
 20
75.05027502844267
 10
224.6912504653833
 20
75.43120456418929
  0
LWPOLYLINE
  5
694
330
70
100
AcDbEntity
  8
grabado
100
AcDbPolyline
 90
       14
 70
     1
 43
0.0
 10
226.7869151633791
 20
74.03543412669147
 10
226.7869151633791
 20
74.61192103859916
 10
226.3346920557075
 20
74.63271701765989
 10
225.934068379415
 20
74.58904953828373
 10
225.6305654055136
 20
74.4871587185657
 10
225.4023314183976
 20
74.35858218825088
 10
225.2954983715842
 20
74.12811483821808
 10
225.2513814210784
 20
73.8937939242028
 10
225.3169380634409
 20
73.64634480539063
 10
225.4529073957491
 20
73.47895271484794
 10
225.6617171925352
 20
73.3697839646471
 10
225.9822163329754
 20
73.36250603416421
 10
226.2420146293774
 20
73.47652670351336
 10
226.4144043185534
 20
73.6245110139421
  0
LWPOLYLINE
  5
695
330
70
100
AcDbEntity
  8
grabado
100
AcDbPolyline
 90
       35
 70
     1
 43
0.0
 10
226.7869151633791
 20
74.99378788532975
 10
226.7869151633791
 20
75.36470251363001
 10
226.6726469947435
 20
75.62974390731709
 10
226.5043967359238
 20
75.82898346553635
 10
226.0993492257082
 20
75.92237698257138
 10
225.7815428212311
 20
75.89124577571944
 10
225.4014213768348
 20
75.77294731390695
 10
225.1799245886774
 20
75.59703429668115
 10
225.1799245886774
 20
76.02643142383733
 10
225.413588415673
 20
76.13516928463098
 10
225.5602962882717
 20
76.19380298165855
 10
225.9690103861033
 20
76.25556580369617
 10
226.4971587773109
 20
76.21891983363467
 10
226.7710134894457
 20
76.10653872765304
 10
226.9446178136627
 20
75.93552402816469
 10
227.0895160719795
 20
75.64748003259724
 10
227.1338563578018
 20
75.50288333774791
 10
227.1338563578018
 20
73.02805850291287
 10
226.7869151633791
 20
73.02805850291287
 10
226.7869151633791
 20
73.49859845167651
 10
226.6322803825972
 20
73.34131034529163
 10
226.3934972913964
 20
73.1416809275168
 10
226.1206024724573
 20
73.07108032269042
 10
225.8403979085534
 20
73.04673532224025
 10
225.521208121257
 20
73.07594932278044
 10
225.2385670587842
 20
73.13681192742676
 10
225.0290226981839
 20
73.29262024087043
 10
224.8292245811172
 20
73.56771926356167
 10
224.7658741227783
 20
73.83794928616288
 10
224.8048590969123
 20
74.30293972644888
 10
224.9169407729191
 20
74.48065854029774
 10
225.3067758080289
 20
74.75240317658945
 10
225.6430213345654
 20
74.87656288592702
 10
226.0085055917027
 20
74.93986009413923
 10
226.4349038086097
 20
74.98368109494949
  0
LWPOLYLINE
  5
696
330
70
100
AcDbEntity
  8
grabado
100
AcDbPolyline
 90
       17
 70
     1
 43
0.0
 10
236.7660670224199
 20
74.03805606244539
 10
236.7660670224199
 20
75.22501632357979
 10
236.9339785393925
 20
75.56866432295
 10
237.2418978694725
 20
75.82084403446351
 10
237.5498171995525
 20
75.88641073047118
 10
237.8880233908196
 20
75.88641073047118
 10
238.1858470174182
 20
75.66953618685129
 10
238.3625219529776
 20
75.31144097165706
 10
238.463478987795
 20
74.76168920469838
 10
238.463478987795
 20
74.34811446953457
 10
238.3778570631004
 20
73.75689473089448
 10
238.1759429934657
 20
73.51480219541901
 10
237.8932630467188
 20
73.35340727528957
 10
237.4641952748583
 20
73.37358162736556
 10
237.2218981420384
 20
73.4694098514874
 10
236.9240745154402
 20
73.77202554671199
 10
236.8079738007712
 20
73.94350774640033
  0
LWPOLYLINE
  5
697
330
70
100
AcDbEntity
  8
grabado
100
AcDbPolyline
 90
       18
 70
     1
 43
0.0
 10
236.7660670224199
 20
73.02805850291287
 10
236.3355256362838
 20
73.02805850291287
 10
236.3355256362838
 20
77.578341366809
 10
236.7660670224199
 20
77.578341366809
 10
236.7660670224199
 20
75.76120236359561
 10
237.0335524406487
 20
76.02090989618059
 10
237.5187925341955
 20
76.22386223001386
 10
238.0294751564804
 20
76.26000457109551
 10
238.5774024953473
 20
75.89672037283562
 10
238.8388723087986
 20
75.46928533970642
 10
238.9605046904327
 20
74.80694797169984
 10
238.9605046904327
 20
74.31231097292474
 10
238.7806934041288
 20
73.65206899129823
 10
238.3928202800404
 20
73.19350698932469
 10
238.0142344612433
 20
73.02805850291287
 10
237.358274026717
 20
73.02805850291287
 10
236.9413725907687
 20
73.23730614723375
 10
236.7660670224199
 20
73.42034674276643
  0
LWPOLYLINE
  5
698
330
70
100
AcDbEntity
  8
grabado
100
AcDbPolyline
 90
       14
 70
     1
 43
0.0
 10
235.3157003086611
 20
74.03543412669147
 10
235.3157003086611
 20
74.61192103859916
 10
234.8634772009897
 20
74.63271701765989
 10
234.4628535246973
 20
74.58904953828373
 10
234.1593505507956
 20
74.4871587185657
 10
233.9311165636799
 20
74.35858218825088
 10
233.8242835168662
 20
74.12811483821808
 10
233.7801665663604
 20
73.8937939242028
 10
233.845723208723
 20
73.64634480539063
 10
233.9816925410312
 20
73.47895271484794
 10
234.1905023378173
 20
73.3697839646471
 10
234.5110014782579
 20
73.36250603416421
 10
234.7707997746592
 20
73.47652670351336
 10
234.9431894638355
 20
73.6245110139421
  0
LWPOLYLINE
  5
699
330
70
100
AcDbEntity
  8
grabado
100
AcDbPolyline
 90
       35
 70
     1
 43
0.0
 10
235.3157003086611
 20
74.99378788532975
 10
235.3157003086611
 20
75.36470251363001
 10
235.2014321400258
 20
75.62974390731709
 10
235.0331818812059
 20
75.82898346553635
 10
234.6281343709906
 20
75.92237698257138
 10
234.3103279665133
 20
75.89124577571944
 10
233.9302065221172
 20
75.77294731390695
 10
233.7087097339591
 20
75.59703429668115
 10
233.7087097339591
 20
76.02643142383733
 10
233.9423735609551
 20
76.13516928463098
 10
234.0890814335541
 20
76.19380298165855
 10
234.4977955313856
 20
76.25556580369617
 10
235.0259439225927
 20
76.21891983363467
 10
235.299798634728
 20
76.10653872765304
 10
235.4734029589451
 20
75.93552402816469
 10
235.6183012172617
 20
75.64748003259724
 10
235.6626415030842
 20
75.50288333774791
 10
235.6626415030842
 20
73.02805850291287
 10
235.3157003086611
 20
73.02805850291287
 10
235.3157003086611
 20
73.49859845167651
 10
235.1610655278795
 20
73.34131034529163
 10
234.9222824366786
 20
73.1416809275168
 10
234.6493876177395
 20
73.07108032269042
 10
234.3691830538356
 20
73.04673532224025
 10
234.049993266539
 20
73.07594932278044
 10
233.7673522040662
 20
73.13681192742676
 10
233.5578078434662
 20
73.29262024087043
 10
233.358009726399
 20
73.56771926356167
 10
233.2946592680604
 20
73.83794928616288
 10
233.3336442421944
 20
74.30293972644888
 10
233.445725918201
 20
74.48065854029774
 10
233.8355609533111
 20
74.75240317658945
 10
234.1718064798476
 20
74.87656288592702
 10
234.5372907369848
 20
74.93986009413923
 10
234.963688953892
 20
74.98368109494949
  0
LWPOLYLINE
  5
69A
330
70
100
AcDbEntity
  8
grabado
100
AcDbPolyline
 90
        4
 70
     1
 43
0.0
 10
202.7017322346714
 20
77.30496648402719
 10
199.4351329357655
 20
77.30496648402719
 10
199.4351329357655
 20
74.32983848297387
 42
0.9999999999999998
 10
202.7017322346714
 20
74.32983848297387
  0
LWPOLYLINE
  5
69B
330
70
100
AcDbEntity
  8
grabado
100
AcDbPolyline
 90
        4
 70
     1
 43
0.0
 10
203.8406294342972
 20
71.8787799659703
 10
204.0580344004079
 20
71.8787799659703
 10
204.0580344004079
 20
69.90260413551306
 10
203.8406294342972
 20
69.90260413551306
  0
LWPOLYLINE
  5
69C
330
70
100
AcDbEntity
  8
grabado
100
AcDbPolyline
 90
       10
 70
     1
 43
0.0
 10
204.6841277907599
 20
71.15983521984403
 42
-0.7171551388456816
 10
205.6654514558312
 20
70.93190220372339
 10
205.6654514558312
 20
69.93809719376597
 10
205.4567538252197
 20
69.93809719376597
 10
205.4567538252197
 20
70.93190220372339
 42
0.7524245620670911
 10
204.6841277907599
 20
70.93190220372339
 10
204.6841277907599
 20
69.92478730986125
 10
204.4532282368207
 20
69.92478730986125
 10
204.4532282368207
 20
71.3445088118123
 10
204.6841277907599
 20
71.3445088118123
  0
LWPOLYLINE
  5
69D
330
70
100
AcDbEntity
  8
grabado
100
AcDbPolyline
 90
       19
 70
     0
 43
0.0
 10
206.2025656632558
 20
70.56624085597443
 10
206.2193130701449
 20
70.8590752792998
 10
206.3002596594269
 20
71.04314261335787
 10
206.3672497855002
 20
71.14912074715839
 10
206.4872738236958
 20
71.17979863616804
 10
206.5626375285845
 20
71.19932101387306
 10
206.760816713866
 20
71.16306531745063
 10
206.8947972152703
 20
71.10449839137723
 10
207.0371510462323
 20
70.96505341310026
 10
207.1180976355145
 20
70.8032973086932
 10
207.0929761512934
 20
70.47420718894539
 10
206.984117383368
 20
70.29850651424597
 10
206.8417633031478
 20
70.17300610626129
 10
206.708414671193
 20
70.1005456456792
 10
206.5685382171391
 20
70.09006374460517
 10
206.3923710204633
 20
70.15906163948992
 10
206.3114246804393
 20
70.21483961009652
 10
206.2416431121692
 20
70.32360669936382
 10
206.2025656632558
 20
70.56624085597443
  0
LWPOLYLINE
  5
69E
330
70
100
AcDbEntity
  8
grabado
100
AcDbPolyline
 90
       36
 70
     1
 43
0.0
 10
206.108711987642
 20
69.28561174025404
 10
206.108711987642
 20
69.49924939364956
 10
206.2110165121024
 20
69.49590836144082
 10
206.341542793848
 20
69.49047745012723
 10
206.5867206032876
 20
69.48567594563735
 10
206.7736906488615
 20
69.48567594563735
 10
206.9077449306828
 20
69.53678502197472
 10
207.0400349632082
 20
69.65486443364915
 10
207.1095042109968
 20
69.86310626930237
 10
207.1179976829901
 20
70.18911115688448
 10
207.0513228684962
 20
70.11898623040593
 10
206.8144510889092
 20
69.96997074869899
 10
206.6705735427807
 20
69.95769886844915
 10
206.5266959966526
 20
69.95769886844915
 10
206.3617631147589
 20
69.99802065717791
 10
206.2494683230207
 20
70.04886120040658
 10
206.1582288670479
 20
70.11547997890599
 10
206.0529526867367
 20
70.23469232286314
 10
205.9862776229847
 20
70.45558585679852
 10
205.9862776229847
 20
70.7378386884625
 10
206.0688548591866
 20
70.97533272385293
 10
206.1829041791523
 20
71.18395437753841
 10
206.3425732271046
 20
71.3259573562454
 10
206.5285611955057
 20
71.37504477372406
 10
206.7180587188785
 20
71.36277299699502
 10
206.8882551854557
 20
71.3259573562454
 10
206.977740113201
 20
71.26810431001679
 10
207.100562572822
 20
71.15941061703868
 10
207.100562572822
 20
71.36955071468633
 10
207.2658361906281
 20
71.36955071468633
 10
207.3026356691661
 20
71.36955071468633
 10
207.3026356691661
 20
69.82142328479643
 10
207.2405207835542
 20
69.61495434737734
 10
207.1214481637763
 20
69.42802963056452
 10
206.9420608008591
 20
69.33949558970048
 10
206.7192008197933
 20
69.27916901606294
  0
LWPOLYLINE
  5
69F
330
70
100
AcDbEntity
  8
grabado
100
AcDbPolyline
 90
        2
 70
     1
 43
0.0
 10
208.6358301074016
 20
70.74593101754442
 10
207.8017168193907
 20
70.74593101754442
 42
-0.9999999999999998
  0
LWPOLYLINE
  5
6A0
330
70
100
AcDbEntity
  8
grabado
100
AcDbPolyline
 90
       10
 70
     1
 43
0.0
 10
209.3292364131508
 20
71.15983521984403
 42
-0.7171551388456848
 10
210.3105600782226
 20
70.93190220372339
 10
210.3105600782226
 20
69.93809719376597
 10
210.1018624476107
 20
69.93809719376597
 10
210.1018624476107
 20
70.93190220372339
 42
0.7524245620670902
 10
209.3292364131508
 20
70.93190220372339
 10
209.3292364131508
 20
69.92478730986125
 10
209.0983368592122
 20
69.92478730986125
 10
209.0983368592122
 20
71.3445088118123
 10
209.3292364131508
 20
71.3445088118123
  0
LWPOLYLINE
  5
6A1
330
70
100
AcDbEntity
  8
grabado
100
AcDbPolyline
 90
        7
 70
     1
 43
0.0
 10
208.8212712033874
 20
70.55446794626572
 10
208.8212712033874
 20
70.76924671009185
 42
0.8825348822803565
 10
207.5707050329382
 20
70.74593101754442
 10
207.5707050329382
 20
70.2999943281285
 42
0.5594095257218115
 10
208.6639546540021
 20
69.96961010458399
 10
208.5620048794337
 20
70.1825755170716
 42
-0.7729925407141151
 10
207.7787233856964
 20
70.55446794626572
  0
LWPOLYLINE
  5
6A2
330
70
100
AcDbEntity
  8
grabado
100
AcDbPolyline
 90
        2
 70
     1
 43
0.0
 10
212.2784331058081
 20
70.87856121766241
 10
211.444319817797
 20
70.87856121766241
 42
-0.9999999999999998
  0
LWPOLYLINE
  5
6A3
330
70
100
AcDbEntity
  8
grabado
100
AcDbPolyline
 90
        7
 70
     1
 43
0.0
 10
212.4638742017937
 20
70.68709814638374
 10
212.4638742017937
 20
70.90187691020993
 42
0.8825348822803565
 10
211.2133080313446
 20
70.87856121766241
 10
211.2133080313446
 20
70.43262452824653
 42
0.5594095257218115
 10
212.3065576524084
 20
70.10224030470206
 10
212.2046078778401
 20
70.31520571718963
 42
-0.7729925407141151
 10
211.4213263841028
 20
70.68709814638374
  0
LWPOLYLINE
  5
6A4
330
70
100
AcDbEntity
  8
grabado
100
AcDbPolyline
 90
       14
 70
     1
 43
0.0
 10
215.0457245755106
 20
70.39086665993695
 10
215.0457245755106
 20
70.64997127314957
 10
214.8424708832259
 20
70.65931811867137
 10
214.6624087854658
 20
70.63969157534484
 10
214.5259980204727
 20
70.59389629207361
 10
214.4234172372281
 20
70.53610699717845
 10
214.3754006479505
 20
70.43252241901207
 10
214.3555720878207
 20
70.32720583933009
 10
214.3850368130593
 20
70.2159887294611
 10
214.4461488357761
 20
70.14075360793616
 10
214.5399993300608
 20
70.09168722635587
 10
214.6840490978932
 20
70.08841612804684
 10
214.800816600697
 20
70.13966322632386
 10
214.8782979152131
 20
70.20617543453393
  0
LWPOLYLINE
  5
6A5
330
70
100
AcDbEntity
  8
grabado
100
AcDbPolyline
 90
       35
 70
     1
 43
0.0
 10
215.0457245755106
 20
70.82160303022357
 10
215.0457245755106
 20
70.9883122638862
 10
214.9943662375758
 20
71.10743630014461
 10
214.918745408492
 20
71.19698540803028
 10
214.7366949988482
 20
71.23896154071963
 10
214.5938554932016
 20
71.22496948098052
 10
214.4230082149897
 20
71.17179970980543
 10
214.3234554958599
 20
71.09273481978646
 10
214.3234554958599
 20
71.28572927334352
 10
214.4284767448506
 20
71.33460198975831
 10
214.494415252386
 20
71.36095516634526
 10
214.678113626184
 20
71.38871474212122
 10
214.9154922757183
 20
71.37224404746632
 10
215.0385774972532
 20
71.32173385825594
 10
215.1166047349046
 20
71.24487053898651
 10
215.1817299032314
 20
71.11540788074027
 10
215.2016588424152
 20
71.05041825145836
 10
215.2016588424152
 20
69.93809719376597
 10
215.0457245755106
 20
69.93809719376597
 10
215.0457245755106
 20
70.14958347195755
 10
214.9762232837448
 20
70.07888963116776
 10
214.8689011586293
 20
69.98916529916643
 10
214.7462473653716
 20
69.95743354250683
 10
214.6203081746437
 20
69.94649157349588
 10
214.4768469014206
 20
69.95962193630899
 10
214.3498126155462
 20
69.98697690536427
 10
214.2556319682798
 20
70.057005646618
 10
214.1658318136291
 20
70.18065012908107
 10
214.1373586676382
 20
70.30210621774205
 10
214.1548806381035
 20
70.51109824460209
 10
214.2052562471763
 20
70.59097475796566
 10
214.3804693420488
 20
70.71311159650369
 10
214.5315963933281
 20
70.76891573151526
 10
214.6958649224566
 20
70.79736494399956
 10
214.8875115024296
 20
70.81706048821924
  0
LWPOLYLINE
  5
6A6
330
70
100
AcDbEntity
  8
grabado
100
AcDbPolyline
 90
        4
 70
     1
 43
0.0
 10
210.6857058311167
 20
71.34451595475157
 10
210.9083649101009
 20
71.34451595475157
 10
210.9083649101009
 20
69.93809719376597
 10
210.6857058311167
 20
69.93809719376597
  0
LWPOLYLINE
  5
6A7
330
70
100
AcDbEntity
  8
grabado
100
AcDbPolyline
 90
        4
 70
     1
 43
0.0
 10
210.6857058311167
 20
71.97286500234461
 10
210.9083649101009
 20
71.97286500234461
 10
210.9083649101009
 20
71.61873018465955
 10
210.6857058311167
 20
71.61873018465955
  0
LWPOLYLINE
  5
6A8
330
70
100
AcDbEntity
  8
grabado
100
AcDbPolyline
 90
        4
 70
     1
 43
0.0
 10
213.6512319247195
 20
71.34451595475157
 10
213.8738910037031
 20
71.34451595475157
 10
213.8738910037031
 20
69.93809719376597
 10
213.6512319247195
 20
69.93809719376597
  0
LWPOLYLINE
  5
6A9
330
70
100
AcDbEntity
  8
grabado
100
AcDbPolyline
 90
        4
 70
     1
 43
0.0
 10
213.8839458288458
 20
71.97286500234461
 10
214.0316178320292
 20
71.97286500234461
 10
213.8738910037031
 20
71.61873018465955
 10
213.6512319247195
 20
71.61873018465955
  0
LWPOLYLINE
  5
6AA
330
70
100
AcDbEntity
  8
grabado
100
AcDbPolyline
 90
        8
 70
     1
 43
0.0
 10
212.9106776891701
 20
71.11999931168636
 10
212.9106776891701
 20
71.30726024682958
 10
212.7221627414864
 20
71.30726024682958
 10
212.7221627414864
 20
69.93809719376597
 10
212.9106776891701
 20
69.93809719376597
 10
212.9106776891701
 20
70.95397668116949
 42
-0.2157604086981451
 10
213.4152729285346
 20
71.18235146055505
 10
213.4152729285346
 20
71.33650147335576
 42
0.2621551455826312
  0
TEXT
  5
6AC
330
70
100
AcDbEntity
  8
grabado
100
AcDbText
 10
692.4473571035606
 20
91.42169670936985
 30
0.0
 40
2.291675
  1
Luis Díaz
100
AcDbText
  0
TEXT
  5
6AD
330
70
100
AcDbEntity
  8
grabado
100
AcDbText
 10
692.4473571035606
 20
87.47773698534388
 30
0.0
 40
2.291675
  1
Francisco González-Quintial
100
AcDbText
  0
TEXT
  5
6AE
330
70
100
AcDbEntity
  8
grabado
100
AcDbText
 10
692.4473571035606
 20
83.58883698534389
 30
0.0
 40
2.291675
  1
Borja J. Lanza
100
AcDbText
  0
TEXT
  5
6AF
330
70
100
AcDbEntity
  8
grabado
100
AcDbText
 10
692.5991433697944
 20
79.69993698534388
 30
0.0
 40
2.291675
  1
Jose Real
100
AcDbText
  0
TEXT
  5
6B0
330
70
100
AcDbEntity
  8
grabado
100
AcDbText
 10
692.6422982886255
 20
75.81103698534388
 30
0.0
 40
2.291675
  1
Victoria Retana
100
AcDbText
  0
TEXT
  5
6B1
330
70
100
AcDbEntity
  8
grabado
100
AcDbText
 10
692.4503333048593
 20
71.86707726131789
 30
0.0
 40
2.291675
  1
María Santisteban
100
AcDbText
  0
TEXT
  5
6B2
330
70
100
AcDbEntity
  8
grabado
100
AcDbText
 10
692.4503333048593
 20
67.97817726131789
 30
0.0
 40
2.291675
  1
Marta Verde
100
AcDbText
  0
ENDSEC
  0
SECTION
  2
OBJECTS
  0
DICTIONARY
  5
C
330
0
100
AcDbDictionary
281
     1
  3
ACAD_CIP_PREVIOUS_PRODUCT_INFO
350
7B
  3
ACAD_COLOR
350
63
  3
ACAD_DETAILVIEWSTYLE
350
6A
  3
ACAD_GROUP
350
D
  3
ACAD_LAYOUT
350
62
  3
ACAD_MATERIAL
350
10
  3
ACAD_MLEADERSTYLE
350
66
  3
ACAD_MLINESTYLE
350
5F
  3
ACAD_PLOTSETTINGS
350
61
  3
ACAD_PLOTSTYLENAME
350
E
  3
ACAD_RENDER_ACTIVE_RAPIDRT_SETTINGS
350
787
  3
ACAD_RENDER_ACTIVE_SETTINGS
350
7C1
  3
ACAD_SCALELIST
350
42
  3
ACAD_SECTIONVIEWSTYLE
350
68
  3
ACAD_TABLESTYLE
350
64
  3
ACAD_VISUALSTYLE
350
29
  3
ACDB_RECOMPOSE_DATA
350
78A
  3
AcDbVariableDictionary
350
524
  0
DICTIONARY
  5
80
330
2
100
AcDbDictionary
280
     1
281
     1
  3
ACAD_LAYERSTATES
360
81
  0
DICTIONARY
  5
259
330
70
100
AcDbDictionary
280
     1
281
     1
  3
ACAD_SORTENTS
360
25A
  0
DICTIONARY
  5
276
330
274
100
AcDbDictionary
280
     1
281
     1
  3
ACAD_SORTENTS
360
277
  0
DICTIONARY
  5
66C
330
630
100
AcDbDictionary
280
     1
281
     1
  0
XRECORD
  5
7B
102
{ACAD_REACTORS
330
C
102
}
330
C
100
AcDbXrecord
280
     1
300
ACD
300
2016
300
ACD_F_S
  0
DICTIONARY
  5
63
102
{ACAD_REACTORS
330
C
102
}
330
C
100
AcDbDictionary
281
     1
  0
DICTIONARY
  5
6A
102
{ACAD_REACTORS
330
C
102
}
330
C
100
AcDbDictionary
281
     1
  3
Metric50
350
6B
  0
DICTIONARY
  5
D
102
{ACAD_REACTORS
330
C
102
}
330
C
100
AcDbDictionary
281
     1
  0
DICTIONARY
  5
62
102
{ACAD_REACTORS
330
C
102
}
330
C
100
AcDbDictionary
281
     1
  3
Model
350
73
  3
Presentación1
350
6F
  3
Presentación2
350
77
  0
DICTIONARY
  5
10
102
{ACAD_REACTORS
330
C
102
}
330
C
100
AcDbDictionary
281
     1
  3
ByBlock
350
19
  3
ByLayer
350
11
  3
Global
350
21
  0
DICTIONARY
  5
66
102
{ACAD_REACTORS
330
C
102
}
330
C
100
AcDbDictionary
281
     1
  3
Standard
350
67
  0
DICTIONARY
  5
5F
102
{ACAD_REACTORS
330
C
102
}
330
C
100
AcDbDictionary
281
     1
  3
Standard
350
60
  0
DICTIONARY
  5
61
102
{ACAD_REACTORS
330
C
102
}
330
C
100
AcDbDictionary
281
     1
  0
ACDBDICTIONARYWDFLT
  5
E
102
{ACAD_REACTORS
330
C
102
}
330
C
100
AcDbDictionary
281
     1
  3
Normal
350
F
100
AcDbDictionaryWithDefault
340
F
  0
RAPIDRTRENDERSETTINGS
  5
787
102
{ACAD_REACTORS
330
C
102
}
330
C
100
AcDbRenderSettings
 90
        2
  1
Medio
290
     1
290
     0
290
     1
290
     1
  1

  1
Aplica 5 niveles de renderización
 90
        0
100
AcDbRapidRTRenderSettings
 90
        3
 70
     0
 90
        5
 90
        1
 70
     1
 70
     2
 40
3.0
 40
3.0
290
     1
  0
MENTALRAYRENDERSETTINGS
  5
7C1
102
{ACAD_XDICTIONARY
360
7C2
102
}
102
{ACAD_REACTORS
330
C
102
}
330
C
100
AcDbRenderSettings
 90
        2
  1
Medio
290
     1
290
     1
290
     1
290
     1
  1

  1

 90
        0
100
AcDbMentalRayRenderSettings
 90
        2
 90
        0
 90
        1
 70
     2
 40
3.0
 40
3.0
 40
0.0500000007450581
 40
0.0500000007450581
 40
0.0500000007450581
 40
0.0500000007450581
 70
     0
290
     0
290
     1
 90
        5
 90
        5
 90
        5
290
     0
 90
      500
290
     0
 40
1.0
 90
    10000
 90
        5
 90
        5
 90
        5
290
     0
 90
      200
290
     0
290
     0
290
     0
 40
1.0
 40
1.0
 40
1500.0
 70
     0
 70
     0
 40
10.0
 70
     0
 70
     0
290
     0
  1

 90
       32
 70
     0
 90
     1048
290
     0
 40
1.0
  0
DICTIONARY
  5
42
102
{ACAD_REACTORS
330
C
102
}
330
C
100
AcDbDictionary
281
     1
  3
A0
350
43
  3
A1
350
44
  3
A2
350
45
  3
A3
350
46
  3
A4
350
47
  3
A5
350
48
  3
A6
350
49
  3
A7
350
4A
  3
A8
350
4B
  3
A9
350
4C
  3
B0
350
4D
  3
B1
350
4E
  3
B2
350
4F
  3
B3
350
50
  3
B4
350
51
  3
B5
350
52
  3
B6
350
53
  0
DICTIONARY
  5
68
102
{ACAD_REACTORS
330
C
102
}
330
C
100
AcDbDictionary
281
     1
  3
Metric50
350
69
  0
DICTIONARY
  5
64
102
{ACAD_REACTORS
330
C
102
}
330
C
100
AcDbDictionary
281
     1
  3
Standard
350
65
  0
DICTIONARY
  5
29
102
{ACAD_REACTORS
330
C
102
}
330
C
100
AcDbDictionary
281
     1
  3
2dWireframe
350
2F
  3
Basic
350
2E
  3
Brighten
350
35
  3
ColorChange
350
39
  3
Conceptual
350
32
  3
Dim
350
34
  3
EdgeColorOff
350
41
  3
Facepattern
350
38
  3
Flat
350
2A
  3
FlatWithEdges
350
2B
  3
Gouraud
350
2C
  3
GouraudWithEdges
350
2D
  3
Hidden
350
31
  3
JitterOff
350
3F
  3
Linepattern
350
37
  3
OverhangOff
350
40
  3
Realistic
350
33
  3
Shaded
350
3E
  3
Shaded with edges
350
3D
  3
Shades of Gray
350
3A
  3
Sketchy
350
3B
  3
Thicken
350
36
  3
Wireframe
350
30
  3
X-Ray
350
3C
  0
XRECORD
  5
78A
102
{ACAD_REACTORS
330
C
102
}
330
C
100
AcDbXrecord
280
     1
 90
        1
330
65
  0
DICTIONARY
  5
524
102
{ACAD_REACTORS
330
C
102
}
330
C
100
AcDbDictionary
281
     1
  3
CANNOSCALE
350
529
  3
CMLEADERSTYLE
350
526
  3
CTABLESTYLE
350
525
  3
CVIEWDETAILSTYLE
350
527
  3
CVIEWSECTIONSTYLE
350
528
  0
DICTIONARY
  5
81
102
{ACAD_REACTORS
330
80
102
}
330
80
100
AcDbDictionary
281
     1
  0
SORTENTSTABLE
  5
25A
102
{ACAD_REACTORS
330
259
102
}
330
259
100
AcDbSortentsTable
330
70
331
56F
  5
56F
331
68D
  5
694
331
56B
  5
56B
331
689
  5
690
331
567
  5
567
331
685
  5
68C
331
563
  5
563
331
406
  5
406
331
43D
  5
43D
331
47C
  5
47C
331
681
  5
688
331
402
  5
402
331
439
  5
439
331
478
  5
478
331
3FE
  5
3FE
331
435
  5
435
331
474
  5
474
331
3FA
  5
3FA
331
431
  5
431
331
470
  5
470
331
55F
  5
55F
331
67D
  5
684
331
679
  5
680
331
675
  5
67C
331
6B0
  5
674
331
3F6
  5
3F6
331
42D
  5
42D
331
46C
  5
46C
331
671
  5
678
331
3F2
  5
3F2
331
429
  5
429
331
468
  5
468
331
3EE
  5
3EE
331
425
  5
425
331
464
  5
464
331
3EA
  5
3EA
331
421
  5
421
331
460
  5
460
331
6AC
  5
670
331
6A8
  5
6B0
331
48F
  5
48F
331
6A4
  5
6AC
331
582
  5
582
331
3E6
  5
3E6
331
41D
  5
41D
331
45C
  5
45C
331
48B
  5
48B
331
6A0
  5
6A7
331
3E2
  5
3E2
331
419
  5
419
331
458
  5
458
331
415
  5
415
331
454
  5
454
331
411
  5
411
331
450
  5
450
331
57E
  5
57E
331
69C
  5
6A3
331
57A
  5
57A
331
698
  5
69F
331
576
  5
576
331
694
  5
69B
331
572
  5
572
331
44C
  5
44C
331
690
  5
697
331
448
  5
448
331
487
  5
487
331
40D
  5
40D
331
444
  5
444
331
483
  5
483
331
409
  5
409
331
440
  5
440
331
56E
  5
56E
331
68C
  5
693
331
56A
  5
56A
331
688
  5
68F
331
566
  5
566
331
47F
  5
47F
331
684
  5
68B
331
562
  5
562
331
405
  5
405
331
43C
  5
43C
331
47B
  5
47B
331
680
  5
687
331
401
  5
401
331
438
  5
438
331
477
  5
477
331
3FD
  5
3FD
331
434
  5
434
331
473
  5
473
331
3F9
  5
3F9
331
430
  5
430
331
67C
  5
683
331
55E
  5
55E
331
678
  5
67F
331
46F
  5
46F
331
674
  5
67B
331
3F5
  5
3F5
331
42C
  5
42C
331
46B
  5
46B
331
670
  5
677
331
3F1
  5
3F1
331
428
  5
428
331
467
  5
467
331
3ED
  5
3ED
331
424
  5
424
331
463
  5
463
331
3E9
  5
3E9
331
420
  5
420
331
6AF
  5
673
331
6A7
  5
6AF
331
6A3
  5
6AA
331
45F
  5
45F
331
48E
  5
48E
331
585
  5
585
331
3E5
  5
3E5
331
41C
  5
41C
331
45B
  5
45B
331
48A
  5
48A
331
581
  5
581
331
3E1
  5
3E1
331
418
  5
418
331
457
  5
457
331
414
  5
414
331
453
  5
453
331
410
  5
410
331
69F
  5
6A6
331
69B
  5
6A2
331
57D
  5
57D
331
697
  5
69E
331
579
  5
579
331
693
  5
69A
331
44F
  5
44F
331
575
  5
575
331
44B
  5
44B
331
571
  5
571
331
447
  5
447
331
486
  5
486
331
40C
  5
40C
331
443
  5
443
331
482
  5
482
331
408
  5
408
331
68F
  5
696
331
68B
  5
692
331
56D
  5
56D
331
687
  5
68E
331
569
  5
569
331
683
  5
68A
331
43F
  5
43F
331
47E
  5
47E
331
565
  5
565
331
404
  5
404
331
43B
  5
43B
331
47A
  5
47A
331
561
  5
561
331
400
  5
400
331
437
  5
437
331
476
  5
476
331
3FC
  5
3FC
331
433
  5
433
331
472
  5
472
331
3F8
  5
3F8
331
67F
  5
686
331
67B
  5
682
331
55D
  5
55D
331
677
  5
67E
331
6B2
  5
676
331
42F
  5
42F
331
46E
  5
46E
331
673
  5
67A
331
3F4
  5
3F4
331
42B
  5
42B
331
46A
  5
46A
331
3F0
  5
3F0
331
427
  5
427
331
466
  5
466
331
3EC
  5
3EC
331
423
  5
423
331
462
  5
462
331
3E8
  5
3E8
331
6AE
  5
672
331
6AA
  5
6B2
331
6A6
  5
6AE
331
6A2
  5
6A9
331
48D
  5
48D
331
584
  5
584
331
41F
  5
41F
331
45E
  5
45E
331
489
  5
489
331
580
  5
580
331
3E4
  5
3E4
331
41B
  5
41B
331
45A
  5
45A
331
3E0
  5
3E0
331
417
  5
417
331
456
  5
456
331
413
  5
413
331
452
  5
452
331
69E
  5
6A5
331
69A
  5
6A1
331
57C
  5
57C
331
696
  5
69D
331
578
  5
578
331
692
  5
699
331
574
  5
574
331
44E
  5
44E
331
570
  5
570
331
44A
  5
44A
331
40F
  5
40F
331
446
  5
446
331
485
  5
485
331
40B
  5
40B
331
442
  5
442
331
481
  5
481
331
68E
  5
695
331
68A
  5
691
331
56C
  5
56C
331
686
  5
68D
331
568
  5
568
331
682
  5
689
331
564
  5
564
331
407
  5
407
331
43E
  5
43E
331
47D
  5
47D
331
560
  5
560
331
403
  5
403
331
43A
  5
43A
331
479
  5
479
331
3FF
  5
3FF
331
436
  5
436
331
475
  5
475
331
3FB
  5
3FB
331
432
  5
432
331
471
  5
471
331
67E
  5
685
331
67A
  5
681
331
676
  5
67D
331
6B1
  5
675
331
672
  5
679
331
3F7
  5
3F7
331
42E
  5
42E
331
46D
  5
46D
331
3F3
  5
3F3
331
42A
  5
42A
331
469
  5
469
331
3EF
  5
3EF
331
426
  5
426
331
465
  5
465
331
3EB
  5
3EB
331
422
  5
422
331
461
  5
461
331
6AD
  5
671
331
6A9
  5
6B1
331
6A5
  5
6AD
331
6A1
  5
6A8
331
583
  5
583
331
3E7
  5
3E7
331
41E
  5
41E
331
45D
  5
45D
331
48C
  5
48C
331
3E3
  5
3E3
331
41A
  5
41A
331
459
  5
459
331
488
  5
488
331
3DF
  5
3DF
331
416
  5
416
331
455
  5
455
331
412
  5
412
331
451
  5
451
331
69D
  5
6A4
331
57F
  5
57F
331
699
  5
6A0
331
57B
  5
57B
331
695
  5
69C
331
577
  5
577
331
691
  5
698
331
573
  5
573
331
44D
  5
44D
331
449
  5
449
331
40E
  5
40E
331
445
  5
445
331
484
  5
484
331
40A
  5
40A
331
441
  5
441
331
480
  5
480
  0
SORTENTSTABLE
  5
277
102
{ACAD_REACTORS
330
276
102
}
330
276
100
AcDbSortentsTable
330
274
  0
ACDBDETAILVIEWSTYLE
  5
6B
102
{ACAD_XDICTIONARY
360
7BF
102
}
102
{ACAD_REACTORS
330
6A
102
}
330
6A
100
AcDbModelDocViewStyle
 70
     0
  3
Metric50
290
     0
100
AcDbDetailViewStyle
 70
     0
 71
     0
 90
        3
 71
     1
340
55
 62
   256
 40
5.0
340
0
 62
   256
 40
5.0
300

 40
0.36
280
     1
 71
     2
340
5D
 90
       25
 62
   256
 71
     3
340
55
 62
   256
 40
5.0
 90
        0
 40
15.0
 90
        1
300
%<\AcVar ViewDetailId>% (%<\AcVar ViewScale \f "%sn">%)
 71
     4
340
5D
 90
       25
 62
   256
340
5D
 90
       25
 62
   256
280
     0
  0
LAYOUT
  5
73
102
{ACAD_XDICTIONARY
360
522
102
}
102
{ACAD_REACTORS
330
62
102
}
330
62
100
AcDbPlotSettings
  1

  2
Brother HL-1210W series Printer
  4

  6

 40
0.0
 41
0.0
 42
0.0
 43
0.0
 44
0.0
 45
0.0
 46
0.0
 47
0.0
 48
0.0
 49
0.0
140
0.0
141
0.0
142
1.0
143
1.0
 70
  1712
 72
     0
 73
     0
 74
     0
  7

 75
     0
147
1.0
 76
     0
 77
     2
 78
   300
148
0.0
149
0.0
100
AcDbLayout
  1
Model
 70
     1
 71
     0
 10
0.0
 20
0.0
 11
12.0
 21
9.0
 12
0.0
 22
0.0
 32
0.0
 14
0.0
 24
0.0
 34
0.0
 15
0.0
 25
0.0
 35
0.0
146
0.0
 13
0.0
 23
0.0
 33
0.0
 16
1.0
 26
0.0
 36
0.0
 17
0.0
 27
1.0
 37
0.0
 76
     0
330
70
331
57
  0
LAYOUT
  5
6F
102
{ACAD_REACTORS
330
62
102
}
330
62
100
AcDbPlotSettings
  1

  2
Brother HL-1210W series Printer
  4

  6

 40
0.0
 41
0.0
 42
0.0
 43
0.0
 44
0.0
 45
0.0
 46
0.0
 47
0.0
 48
0.0
 49
0.0
140
0.0
141
0.0
142
1.0
143
1.0
 70
   688
 72
     0
 73
     0
 74
     5
  7

 75
    16
147
1.0
 76
     0
 77
     2
 78
   300
148
0.0
149
0.0
100
AcDbLayout
  1
Presentación1
 70
     1
 71
     1
 10
0.0
 20
0.0
 11
420.0
 21
297.0
 12
0.0
 22
0.0
 32
0.0
 14
1.000000000000000E+20
 24
1.000000000000000E+20
 34
1.000000000000000E+20
 15
-1.000000000000000E+20
 25
-1.000000000000000E+20
 35
-1.000000000000000E+20
146
0.0
 13
0.0
 23
0.0
 33
0.0
 16
1.0
 26
0.0
 36
0.0
 17
0.0
 27
1.0
 37
0.0
 76
     0
330
6C
  0
LAYOUT
  5
77
102
{ACAD_REACTORS
330
62
102
}
330
62
100
AcDbPlotSettings
  1

  2
Brother HL-1210W series Printer
  4

  6

 40
0.0
 41
0.0
 42
0.0
 43
0.0
 44
0.0
 45
0.0
 46
0.0
 47
0.0
 48
0.0
 49
0.0
140
0.0
141
0.0
142
1.0
143
1.0
 70
   688
 72
     0
 73
     0
 74
     5
  7

 75
    16
147
1.0
 76
     0
 77
     2
 78
   300
148
0.0
149
0.0
100
AcDbLayout
  1
Presentación2
 70
     1
 71
     2
 10
0.0
 20
0.0
 11
12.0
 21
9.0
 12
0.0
 22
0.0
 32
0.0
 14
0.0
 24
0.0
 34
0.0
 15
0.0
 25
0.0
 35
0.0
146
0.0
 13
0.0
 23
0.0
 33
0.0
 16
1.0
 26
0.0
 36
0.0
 17
0.0
 27
1.0
 37
0.0
 76
     0
330
74
  0
MATERIAL
  5
19
102
{ACAD_XDICTIONARY
360
1A
102
}
102
{ACAD_REACTORS
330
10
102
}
330
10
100
AcDbMaterial
  1
ByBlock
 72
     0
 43
0.0208333333333333
 43
0.0
 43
0.0
 43
0.0
 43
0.0
 43
0.0208333333333333
 43
0.0
 43
0.0
 43
0.0
 43
0.0
 43
1.0
 43
0.0
 43
0.0
 43
0.0
 43
0.0
 43
1.0
 77
     0
 47
0.0208333333333333
 47
0.0
 47
0.0
 47
0.0
 47
0.0
 47
0.0208333333333333
 47
0.0
 47
0.0
 47
0.0
 47
0.0
 47
1.0
 47
0.0
 47
0.0
 47
0.0
 47
0.0
 47
1.0
171
     0
 49
0.0208333333333333
 49
0.0
 49
0.0
 49
0.0
 49
0.0
 49
0.0208333333333333
 49
0.0
 49
0.0
 49
0.0
 49
0.0
 49
1.0
 49
0.0
 49
0.0
 49
0.0
 49
0.0
 49
1.0
175
     0
142
0.0208333333333333
142
0.0
142
0.0
142
0.0
142
0.0
142
0.0208333333333333
142
0.0
142
0.0
142
0.0
142
0.0
142
1.0
142
0.0
142
0.0
142
0.0
142
0.0
142
1.0
179
     0
144
0.0208333333333333
144
0.0
144
0.0
144
0.0
144
0.0
144
0.0208333333333333
144
0.0
144
0.0
144
0.0
144
0.0
144
1.0
144
0.0
144
0.0
144
0.0
144
0.0
144
1.0
147
0.0208333333333333
147
0.0
147
0.0
147
0.0
147
0.0
147
0.0208333333333333
147
0.0
147
0.0
147
0.0
147
0.0
147
1.0
147
0.0
147
0.0
147
0.0
147
0.0
147
1.0
  0
MATERIAL
  5
11
102
{ACAD_XDICTIONARY
360
12
102
}
102
{ACAD_REACTORS
330
10
102
}
330
10
100
AcDbMaterial
  1
ByLayer
 72
     0
 43
0.0208333333333333
 43
0.0
 43
0.0
 43
0.0
 43
0.0
 43
0.0208333333333333
 43
0.0
 43
0.0
 43
0.0
 43
0.0
 43
1.0
 43
0.0
 43
0.0
 43
0.0
 43
0.0
 43
1.0
 77
     0
 47
0.0208333333333333
 47
0.0
 47
0.0
 47
0.0
 47
0.0
 47
0.0208333333333333
 47
0.0
 47
0.0
 47
0.0
 47
0.0
 47
1.0
 47
0.0
 47
0.0
 47
0.0
 47
0.0
 47
1.0
171
     0
 49
0.0208333333333333
 49
0.0
 49
0.0
 49
0.0
 49
0.0
 49
0.0208333333333333
 49
0.0
 49
0.0
 49
0.0
 49
0.0
 49
1.0
 49
0.0
 49
0.0
 49
0.0
 49
0.0
 49
1.0
175
     0
142
0.0208333333333333
142
0.0
142
0.0
142
0.0
142
0.0
142
0.0208333333333333
142
0.0
142
0.0
142
0.0
142
0.0
142
1.0
142
0.0
142
0.0
142
0.0
142
0.0
142
1.0
179
     0
144
0.0208333333333333
144
0.0
144
0.0
144
0.0
144
0.0
144
0.0208333333333333
144
0.0
144
0.0
144
0.0
144
0.0
144
1.0
144
0.0
144
0.0
144
0.0
144
0.0
144
1.0
147
0.0208333333333333
147
0.0
147
0.0
147
0.0
147
0.0
147
0.0208333333333333
147
0.0
147
0.0
147
0.0
147
0.0
147
1.0
147
0.0
147
0.0
147
0.0
147
0.0
147
1.0
  0
MATERIAL
  5
21
102
{ACAD_XDICTIONARY
360
22
102
}
102
{ACAD_REACTORS
330
10
102
}
330
10
100
AcDbMaterial
  1
Global
 72
     0
 43
0.0208333333333333
 43
0.0
 43
0.0
 43
0.0
 43
0.0
 43
0.0208333333333333
 43
0.0
 43
0.0
 43
0.0
 43
0.0
 43
1.0
 43
0.0
 43
0.0
 43
0.0
 43
0.0
 43
1.0
 77
     0
 47
0.0208333333333333
 47
0.0
 47
0.0
 47
0.0
 47
0.0
 47
0.0208333333333333
 47
0.0
 47
0.0
 47
0.0
 47
0.0
 47
1.0
 47
0.0
 47
0.0
 47
0.0
 47
0.0
 47
1.0
171
     0
 49
0.0208333333333333
 49
0.0
 49
0.0
 49
0.0
 49
0.0
 49
0.0208333333333333
 49
0.0
 49
0.0
 49
0.0
 49
0.0
 49
1.0
 49
0.0
 49
0.0
 49
0.0
 49
0.0
 49
1.0
175
     0
142
0.0208333333333333
142
0.0
142
0.0
142
0.0
142
0.0
142
0.0208333333333333
142
0.0
142
0.0
142
0.0
142
0.0
142
1.0
142
0.0
142
0.0
142
0.0
142
0.0
142
1.0
179
     0
144
0.0208333333333333
144
0.0
144
0.0
144
0.0
144
0.0
144
0.0208333333333333
144
0.0
144
0.0
144
0.0
144
0.0
144
1.0
144
0.0
144
0.0
144
0.0
144
0.0
144
1.0
147
0.0208333333333333
147
0.0
147
0.0
147
0.0
147
0.0
147
0.0208333333333333
147
0.0
147
0.0
147
0.0
147
0.0
147
1.0
147
0.0
147
0.0
147
0.0
147
0.0
147
1.0
  0
MLEADERSTYLE
  5
67
102
{ACAD_XDICTIONARY
360
7BB
102
}
102
{ACAD_REACTORS
330
66
102
}
330
66
100
AcDbMLeaderStyle
179
     2
170
     2
171
     1
172
     0
 90
        2
 40
0.0
 41
0.0
173
     1
 91
-1056964608
340
5B
 92
       -2
290
     1
 42
0.09
291
     1
 43
0.36
  3
Standard
 44
0.18
300

342
55
174
     1
178
     6
175
     1
176
     0
 93
-1056964608
 45
0.18
292
     0
297
     0
 46
0.18
 94
-1056964608
 47
1.0
 49
1.0
140
1.0
293
     1
141
0.0
294
     1
177
     0
142
1.0
295
     0
296
     0
143
0.125
271
     0
272
     9
273
     9
  0
MLINESTYLE
  5
60
102
{ACAD_REACTORS
330
5F
102
}
330
5F
100
AcDbMlineStyle
  2
STANDARD
 70
     0
  3

 62
   256
 51
90.0
 52
90.0
 71
     2
 49
0.5
 62
   256
  6
BYLAYER
 49
-0.5
 62
   256
  6
BYLAYER
  0
ACDBPLACEHOLDER
  5
F
102
{ACAD_REACTORS
330
E
102
}
330
E
  0
DICTIONARY
  5
7C2
330
7C1
100
AcDbDictionary
280
     1
281
     1
  3
ADSK_XREC_MENTALRAYSETTINGSINFO
360
7C3
  0
SCALE
  5
43
102
{ACAD_REACTORS
330
42
102
}
330
42
100
AcDbScale
 70
     0
300
1:1
140
1.0
141
1.0
290
     1
  0
SCALE
  5
44
102
{ACAD_REACTORS
330
42
102
}
330
42
100
AcDbScale
 70
     0
300
1:2
140
1.0
141
2.0
290
     0
  0
SCALE
  5
45
102
{ACAD_REACTORS
330
42
102
}
330
42
100
AcDbScale
 70
     0
300
1:4
140
1.0
141
4.0
290
     0
  0
SCALE
  5
46
102
{ACAD_REACTORS
330
42
102
}
330
42
100
AcDbScale
 70
     0
300
1:5
140
1.0
141
5.0
290
     0
  0
SCALE
  5
47
102
{ACAD_REACTORS
330
42
102
}
330
42
100
AcDbScale
 70
     0
300
1:8
140
1.0
141
8.0
290
     0
  0
SCALE
  5
48
102
{ACAD_REACTORS
330
42
102
}
330
42
100
AcDbScale
 70
     0
300
1:10
140
1.0
141
10.0
290
     0
  0
SCALE
  5
49
102
{ACAD_REACTORS
330
42
102
}
330
42
100
AcDbScale
 70
     0
300
1:16
140
1.0
141
16.0
290
     0
  0
SCALE
  5
4A
102
{ACAD_REACTORS
330
42
102
}
330
42
100
AcDbScale
 70
     0
300
1:20
140
1.0
141
20.0
290
     0
  0
SCALE
  5
4B
102
{ACAD_REACTORS
330
42
102
}
330
42
100
AcDbScale
 70
     0
300
1:30
140
1.0
141
30.0
290
     0
  0
SCALE
  5
4C
102
{ACAD_REACTORS
330
42
102
}
330
42
100
AcDbScale
 70
     0
300
1:40
140
1.0
141
40.0
290
     0
  0
SCALE
  5
4D
102
{ACAD_REACTORS
330
42
102
}
330
42
100
AcDbScale
 70
     0
300
1:50
140
1.0
141
50.0
290
     0
  0
SCALE
  5
4E
102
{ACAD_REACTORS
330
42
102
}
330
42
100
AcDbScale
 70
     0
300
1:100
140
1.0
141
100.0
290
     0
  0
SCALE
  5
4F
102
{ACAD_REACTORS
330
42
102
}
330
42
100
AcDbScale
 70
     0
300
2:1
140
2.0
141
1.0
290
     0
  0
SCALE
  5
50
102
{ACAD_REACTORS
330
42
102
}
330
42
100
AcDbScale
 70
     0
300
4:1
140
4.0
141
1.0
290
     0
  0
SCALE
  5
51
102
{ACAD_REACTORS
330
42
102
}
330
42
100
AcDbScale
 70
     0
300
8:1
140
8.0
141
1.0
290
     0
  0
SCALE
  5
52
102
{ACAD_REACTORS
330
42
102
}
330
42
100
AcDbScale
 70
     0
300
10:1
140
10.0
141
1.0
290
     0
  0
SCALE
  5
53
102
{ACAD_REACTORS
330
42
102
}
330
42
100
AcDbScale
 70
     0
300
100:1
140
100.0
141
1.0
290
     0
  0
ACDBSECTIONVIEWSTYLE
  5
69
102
{ACAD_XDICTIONARY
360
7BD
102
}
102
{ACAD_REACTORS
330
68
102
}
330
68
100
AcDbModelDocViewStyle
 70
     0
  3
Metric50
290
     0
100
AcDbSectionViewStyle
 70
     0
 71
     0
 90
      102
 71
     1
340
55
 62
   256
 40
5.0
340
0
340
0
 62
   256
 40
5.0
300
I, O, Q, S, X, Z
 40
10.0
 90
        0
 40
2.5
 90
        0
 71
     2
340
5D
 90
       25
 62
   256
340
5D
 90
       50
 62
   256
 40
5.0
 40
2.5
 40
5.0
 71
     3
340
55
 62
   256
 40
5.0
 90
        0
 40
15.0
 90
        1
300
%<\AcVar ViewSectionStartId>%-%<\AcVar ViewSectionEndId>% (%<\AcVar ViewScale \f "%sn">%)
 71
     4
 62
   256
 62
   257
300
ANSI31
 40
1.0
 90
        0
290
     0
290
     0
 90
        6
 40
0.0
 40
1.570796326794896
 40
0.2617993877991494
 40
1.308996938995747
 40
-0.2617993877991494
 40
1.832595714594046
  0
TABLESTYLE
  5
65
102
{ACAD_XDICTIONARY
360
788
102
}
102
{ACAD_REACTORS
330
64
102
}
330
64
100
AcDbTableStyle
280
     0
  3
Standard
 70
     0
 71
     0
 40
1.5
 41
1.5
280
     0
281
     0
  7
Standard
140
4.5
170
     2
 62
     0
 63
     7
283
     0
 90
      512
 91
        0
  1

274
    -2
284
     1
 64
     0
275
    -2
285
     1
 65
     0
276
    -2
286
     1
 66
     0
277
    -2
287
     1
 67
     0
278
    -2
288
     1
 68
     0
279
    -2
289
     1
 69
     0
  7
Standard
140
6.0
170
     5
 62
     0
 63
     7
283
     0
 90
      512
 91
        0
  1

274
    -2
284
     1
 64
     0
275
    -2
285
     1
 65
     0
276
    -2
286
     1
 66
     0
277
    -2
287
     1
 67
     0
278
    -2
288
     1
 68
     0
279
    -2
289
     1
 69
     0
  7
Standard
140
4.5
170
     5
 62
     0
 63
     7
283
     0
 90
      512
 91
        0
  1

274
    -2
284
     1
 64
     0
275
    -2
285
     1
 65
     0
276
    -2
286
     1
 66
     0
277
    -2
287
     1
 67
     0
278
    -2
288
     1
 68
     0
279
    -2
289
     1
 69
     0
  0
VISUALSTYLE
  5
2F
102
{ACAD_XDICTIONARY
360
795
102
}
102
{ACAD_REACTORS
330
29
102
}
330
29
100
AcDbVisualStyle
  2
2dWireframe
 70
     4
177
     2
291
     0
 71
     0
176
     1
 72
     2
176
     1
 73
     0
176
     1
 90
        0
176
     1
 40
0.6
176
     1
 41
30.0
176
     1
 63
     7
421
 16777215
176
     1
 74
     1
176
     1
 91
        4
176
     1
 64
     7
176
     1
 65
   257
176
     1
 75
     1
176
     1
175
     1
176
     1
 42
1.0
176
     1
 92
        0
176
     1
 66
   257
176
     1
 43
1.0
176
     1
 76
     1
176
     1
 77
     6
176
     1
 78
     2
176
     1
 67
     7
176
     1
 79
     5
176
     1
170
     0
176
     1
171
     0
176
     1
290
     0
176
     1
 93
        1
176
     1
 44
0.0
176
     1
173
     0
176
     1
1001
ACAD
1000
AcDbSavedByObjectVersion
1070
     0
  0
VISUALSTYLE
  5
2E
102
{ACAD_XDICTIONARY
360
793
102
}
102
{ACAD_REACTORS
330
29
102
}
330
29
100
AcDbVisualStyle
  2
Basic
 70
     7
177
     2
291
     1
 71
     1
176
     1
 72
     0
176
     1
 73
     1
176
     1
 90
        0
176
     1
 40
0.6
176
     1
 41
30.0
176
     1
 63
     7
421
 16777215
176
     1
 74
     0
176
     1
 91
        4
176
     1
 64
     7
176
     1
 65
   257
176
     1
 75
     1
176
     1
175
     1
176
     1
 42
1.0
176
     1
 92
        8
176
     1
 66
     7
176
     1
 43
1.0
176
     1
 76
     1
176
     1
 77
     6
176
     1
 78
     2
176
     1
 67
     7
176
     1
 79
     5
176
     1
170
     0
176
     1
171
     0
176
     1
290
     0
176
     1
 93
        1
176
     1
 44
0.0
176
     1
173
     0
176
     1
1001
ACAD
1000
AcDbSavedByObjectVersion
1070
     0
  0
VISUALSTYLE
  5
35
102
{ACAD_XDICTIONARY
360
7A1
102
}
102
{ACAD_REACTORS
330
29
102
}
330
29
100
AcDbVisualStyle
  2
Brighten
 70
    12
177
     2
291
     1
 71
     2
176
     1
 72
     2
176
     1
 73
     0
176
     1
 90
        0
176
     1
 40
0.6
176
     1
 41
30.0
176
     1
 63
     7
421
 16777215
176
     1
 74
     1
176
     1
 91
        4
176
     1
 64
     7
176
     1
 65
   257
176
     1
 75
     1
176
     1
175
     1
176
     1
 42
1.0
176
     1
 92
        8
176
     1
 66
     7
176
     1
 43
1.0
176
     1
 76
     1
176
     1
 77
     6
176
     1
 78
     2
176
     1
 67
     7
176
     1
 79
     5
176
     1
170
     0
176
     1
171
     0
176
     1
290
     0
176
     1
 93
        1
176
     1
 44
50.0
176
     1
173
     0
176
     1
1001
ACAD
1000
AcDbSavedByObjectVersion
1070
     0
  0
VISUALSTYLE
  5
39
102
{ACAD_XDICTIONARY
360
7A9
102
}
102
{ACAD_REACTORS
330
29
102
}
330
29
100
AcDbVisualStyle
  2
ColorChange
 70
    16
177
     2
291
     1
 71
     2
176
     1
 72
     2
176
     1
 73
     3
176
     1
 90
        0
176
     1
 40
0.6
176
     1
 41
30.0
176
     1
 63
     8
421
  8421504
176
     1
 74
     1
176
     1
 91
        4
176
     1
 64
     7
176
     1
 65
   257
176
     1
 75
     1
176
     1
175
     1
176
     1
 42
1.0
176
     1
 92
        8
176
     1
 66
     8
424
  8421504
176
     1
 43
1.0
176
     1
 76
     1
176
     1
 77
     6
176
     1
 78
     2
176
     1
 67
     7
176
     1
 79
     5
176
     1
170
     0
176
     1
171
     0
176
     1
290
     0
176
     1
 93
        1
176
     1
 44
0.0
176
     1
173
     0
176
     1
1001
ACAD
1000
AcDbSavedByObjectVersion
1070
     0
  0
VISUALSTYLE
  5
32
102
{ACAD_XDICTIONARY
360
79B
102
}
102
{ACAD_REACTORS
330
29
102
}
330
29
100
AcDbVisualStyle
  2
Conceptual
 70
     9
177
     2
291
     0
 71
     3
176
     1
 72
     2
176
     1
 73
     0
176
     1
 90
        0
176
     1
 40
0.6
176
     1
 41
30.0
176
     1
 63
     7
421
 16777215
176
     1
 74
     2
176
     1
 91
        2
176
     1
 64
     7
176
     1
 65
   257
176
     1
 75
     1
176
     1
175
     1
176
     1
 42
179.0
176
     1
 92
        8
176
     1
 66
     7
176
     1
 43
1.0
176
     1
 76
     1
176
     1
 77
     6
176
     1
 78
     2
176
     1
 67
     7
176
     1
 79
     3
176
     1
170
     0
176
     1
171
     0
176
     1
290
     0
176
     1
 93
        1
176
     1
 44
0.0
176
     1
173
     0
176
     1
1001
ACAD
1000
AcDbSavedByObjectVersion
1070
     0
  0
VISUALSTYLE
  5
34
102
{ACAD_XDICTIONARY
360
79F
102
}
102
{ACAD_REACTORS
330
29
102
}
330
29
100
AcDbVisualStyle
  2
Dim
 70
    11
177
     2
291
     1
 71
     2
176
     1
 72
     2
176
     1
 73
     0
176
     1
 90
        0
176
     1
 40
0.6
176
     1
 41
30.0
176
     1
 63
     7
421
 16777215
176
     1
 74
     1
176
     1
 91
        4
176
     1
 64
     7
176
     1
 65
   257
176
     1
 75
     1
176
     1
175
     1
176
     1
 42
1.0
176
     1
 92
        8
176
     1
 66
     7
176
     1
 43
1.0
176
     1
 76
     1
176
     1
 77
     6
176
     1
 78
     2
176
     1
 67
     7
176
     1
 79
     5
176
     1
170
     0
176
     1
171
     0
176
     1
290
     0
176
     1
 93
        1
176
     1
 44
-50.0
176
     1
173
     0
176
     1
1001
ACAD
1000
AcDbSavedByObjectVersion
1070
     0
  0
VISUALSTYLE
  5
41
102
{ACAD_XDICTIONARY
360
7B9
102
}
102
{ACAD_REACTORS
330
29
102
}
330
29
100
AcDbVisualStyle
  2
EdgeColorOff
 70
    22
177
     2
291
     1
 71
     2
176
     0
 72
     2
176
     0
 73
     0
176
     0
 90
        0
176
     0
 40
0.6
176
     0
 41
30.0
176
     0
 63
     7
421
 16777215
176
     0
 74
     1
176
     0
 91
        4
176
     0
 64
     7
176
     0
 65
   257
176
     0
 75
     1
176
     0
175
     1
176
     0
 42
1.0
176
     0
 92
        8
176
     2
 66
     7
176
     0
 43
1.0
176
     0
 76
     1
176
     0
 77
     6
176
     0
 78
     2
176
     0
 67
     7
176
     0
 79
     5
176
     0
170
     0
176
     0
171
     0
176
     0
290
     0
176
     0
 93
        1
176
     0
 44
0.0
176
     0
173
     0
176
     0
1001
ACAD
1000
AcDbSavedByObjectVersion
1070
     0
  0
VISUALSTYLE
  5
38
102
{ACAD_XDICTIONARY
360
7A7
102
}
102
{ACAD_REACTORS
330
29
102
}
330
29
100
AcDbVisualStyle
  2
Facepattern
 70
    15
177
     2
291
     1
 71
     2
176
     1
 72
     2
176
     1
 73
     0
176
     1
 90
        0
176
     1
 40
0.6
176
     1
 41
30.0
176
     1
 63
     7
421
 16777215
176
     1
 74
     1
176
     1
 91
        4
176
     1
 64
     7
176
     1
 65
   257
176
     1
 75
     1
176
     1
175
     1
176
     1
 42
1.0
176
     1
 92
        8
176
     1
 66
     7
176
     1
 43
1.0
176
     1
 76
     1
176
     1
 77
     6
176
     1
 78
     2
176
     1
 67
     7
176
     1
 79
     5
176
     1
170
     0
176
     1
171
     0
176
     1
290
     0
176
     1
 93
        1
176
     1
 44
0.0
176
     1
173
     0
176
     1
1001
ACAD
1000
AcDbSavedByObjectVersion
1070
     0
  0
VISUALSTYLE
  5
2A
102
{ACAD_XDICTIONARY
360
78B
102
}
102
{ACAD_REACTORS
330
29
102
}
330
29
100
AcDbVisualStyle
  2
Flat
 70
     0
177
     2
291
     1
 71
     2
176
     1
 72
     1
176
     1
 73
     1
176
     1
 90
        2
176
     1
 40
0.6
176
     1
 41
30.0
176
     1
 63
     7
421
 16777215
176
     1
 74
     0
176
     1
 91
        0
176
     1
 64
     7
176
     1
 65
   257
176
     1
 75
     1
176
     1
175
     1
176
     1
 42
1.0
176
     1
 92
        8
176
     1
 66
     7
176
     1
 43
1.0
176
     1
 76
     1
176
     1
 77
     6
176
     1
 78
     2
176
     1
 67
     7
176
     1
 79
     5
176
     1
170
     0
176
     1
171
     0
176
     1
290
     0
176
     1
 93
       13
176
     1
 44
0.0
176
     1
173
     0
176
     1
1001
ACAD
1000
AcDbSavedByObjectVersion
1070
     0
  0
VISUALSTYLE
  5
2B
102
{ACAD_XDICTIONARY
360
78D
102
}
102
{ACAD_REACTORS
330
29
102
}
330
29
100
AcDbVisualStyle
  2
FlatWithEdges
 70
     1
177
     2
291
     1
 71
     2
176
     1
 72
     1
176
     1
 73
     1
176
     1
 90
        2
176
     1
 40
0.6
176
     1
 41
30.0
176
     1
 63
     7
421
 16777215
176
     1
 74
     1
176
     1
 91
        0
176
     1
 64
     7
176
     1
 65
   257
176
     1
 75
     1
176
     1
175
     1
176
     1
 42
1.0
176
     1
 92
        0
176
     1
 66
   257
176
     1
 43
1.0
176
     1
 76
     1
176
     1
 77
     6
176
     1
 78
     2
176
     1
 67
     7
176
     1
 79
     5
176
     1
170
     0
176
     1
171
     0
176
     1
290
     0
176
     1
 93
       13
176
     1
 44
0.0
176
     1
173
     0
176
     1
1001
ACAD
1000
AcDbSavedByObjectVersion
1070
     0
  0
VISUALSTYLE
  5
2C
102
{ACAD_XDICTIONARY
360
78F
102
}
102
{ACAD_REACTORS
330
29
102
}
330
29
100
AcDbVisualStyle
  2
Gouraud
 70
     2
177
     2
291
     1
 71
     2
176
     1
 72
     2
176
     1
 73
     1
176
     1
 90
        2
176
     1
 40
0.6
176
     1
 41
30.0
176
     1
 63
     7
421
 16777215
176
     1
 74
     0
176
     1
 91
        0
176
     1
 64
     7
176
     1
 65
   257
176
     1
 75
     1
176
     1
175
     1
176
     1
 42
1.0
176
     1
 92
        0
176
     1
 66
     7
176
     1
 43
1.0
176
     1
 76
     1
176
     1
 77
     6
176
     1
 78
     2
176
     1
 67
     7
176
     1
 79
     5
176
     1
170
     0
176
     1
171
     0
176
     1
290
     0
176
     1
 93
       13
176
     1
 44
0.0
176
     1
173
     0
176
     1
1001
ACAD
1000
AcDbSavedByObjectVersion
1070
     0
  0
VISUALSTYLE
  5
2D
102
{ACAD_XDICTIONARY
360
791
102
}
102
{ACAD_REACTORS
330
29
102
}
330
29
100
AcDbVisualStyle
  2
GouraudWithEdges
 70
     3
177
     2
291
     1
 71
     2
176
     1
 72
     2
176
     1
 73
     1
176
     1
 90
        2
176
     1
 40
0.6
176
     1
 41
30.0
176
     1
 63
     7
421
 16777215
176
     1
 74
     1
176
     1
 91
        0
176
     1
 64
     7
176
     1
 65
   257
176
     1
 75
     1
176
     1
175
     1
176
     1
 42
1.0
176
     1
 92
        0
176
     1
 66
   257
176
     1
 43
1.0
176
     1
 76
     1
176
     1
 77
     6
176
     1
 78
     2
176
     1
 67
     7
176
     1
 79
     5
176
     1
170
     0
176
     1
171
     0
176
     1
290
     0
176
     1
 93
       13
176
     1
 44
0.0
176
     1
173
     0
176
     1
1001
ACAD
1000
AcDbSavedByObjectVersion
1070
     0
  0
VISUALSTYLE
  5
31
102
{ACAD_XDICTIONARY
360
799
102
}
102
{ACAD_REACTORS
330
29
102
}
330
29
100
AcDbVisualStyle
  2
Hidden
 70
     6
177
     2
291
     0
 71
     1
176
     1
 72
     2
176
     1
 73
     2
176
     1
 90
        0
176
     1
 40
0.6
176
     1
 41
30.0
176
     1
 63
     7
421
 16777215
176
     1
 74
     2
176
     1
 91
        2
176
     1
 64
     7
176
     1
 65
   257
176
     1
 75
     2
176
     1
175
     1
176
     1
 42
40.0
176
     1
 92
        0
176
     1
 66
   257
176
     1
 43
1.0
176
     1
 76
     1
176
     1
 77
     6
176
     1
 78
     2
176
     1
 67
     7
176
     1
 79
     3
176
     1
170
     0
176
     1
171
     0
176
     1
290
     0
176
     1
 93
        1
176
     1
 44
0.0
176
     1
173
     0
176
     1
1001
ACAD
1000
AcDbSavedByObjectVersion
1070
     0
  0
VISUALSTYLE
  5
3F
102
{ACAD_XDICTIONARY
360
7B5
102
}
102
{ACAD_REACTORS
330
29
102
}
330
29
100
AcDbVisualStyle
  2
JitterOff
 70
    20
177
     2
291
     1
 71
     2
176
     0
 72
     2
176
     0
 73
     0
176
     0
 90
        0
176
     0
 40
0.6
176
     0
 41
30.0
176
     0
 63
     7
421
 16777215
176
     0
 74
     1
176
     0
 91
        4
176
     0
 64
     7
176
     0
 65
   257
176
     0
 75
     1
176
     0
175
     1
176
     0
 42
1.0
176
     0
 92
       10
176
     2
 66
     7
176
     0
 43
1.0
176
     0
 76
     1
176
     0
 77
     6
176
     0
 78
     2
176
     0
 67
     7
176
     0
 79
     5
176
     0
170
     0
176
     0
171
     0
176
     0
290
     0
176
     0
 93
        1
176
     0
 44
0.0
176
     0
173
     0
176
     0
1001
ACAD
1000
AcDbSavedByObjectVersion
1070
     0
  0
VISUALSTYLE
  5
37
102
{ACAD_XDICTIONARY
360
7A5
102
}
102
{ACAD_REACTORS
330
29
102
}
330
29
100
AcDbVisualStyle
  2
Linepattern
 70
    14
177
     2
291
     1
 71
     2
176
     1
 72
     2
176
     1
 73
     0
176
     1
 90
        0
176
     1
 40
0.6
176
     1
 41
30.0
176
     1
 63
     7
421
 16777215
176
     1
 74
     1
176
     1
 91
        4
176
     1
 64
     7
176
     1
 65
   257
176
     1
 75
     7
176
     1
175
     7
176
     1
 42
1.0
176
     1
 92
        8
176
     1
 66
     7
176
     1
 43
1.0
176
     1
 76
     1
176
     1
 77
     6
176
     1
 78
     2
176
     1
 67
     7
176
     1
 79
     5
176
     1
170
     0
176
     1
171
     0
176
     1
290
     0
176
     1
 93
        1
176
     1
 44
0.0
176
     1
173
     0
176
     1
1001
ACAD
1000
AcDbSavedByObjectVersion
1070
     0
  0
VISUALSTYLE
  5
40
102
{ACAD_XDICTIONARY
360
7B7
102
}
102
{ACAD_REACTORS
330
29
102
}
330
29
100
AcDbVisualStyle
  2
OverhangOff
 70
    21
177
     2
291
     1
 71
     2
176
     0
 72
     2
176
     0
 73
     0
176
     0
 90
        0
176
     0
 40
0.6
176
     0
 41
30.0
176
     0
 63
     7
421
 16777215
176
     0
 74
     1
176
     0
 91
        4
176
     0
 64
     7
176
     0
 65
   257
176
     0
 75
     1
176
     0
175
     1
176
     0
 42
1.0
176
     0
 92
        9
176
     2
 66
     7
176
     0
 43
1.0
176
     0
 76
     1
176
     0
 77
     6
176
     0
 78
     2
176
     0
 67
     7
176
     0
 79
     5
176
     0
170
     0
176
     0
171
     0
176
     0
290
     0
176
     0
 93
        1
176
     0
 44
0.0
176
     0
173
     0
176
     0
1001
ACAD
1000
AcDbSavedByObjectVersion
1070
     0
  0
VISUALSTYLE
  5
33
102
{ACAD_XDICTIONARY
360
79D
102
}
102
{ACAD_REACTORS
330
29
102
}
330
29
100
AcDbVisualStyle
  2
Realistic
 70
     8
177
     2
291
     0
 71
     2
176
     1
 72
     3
176
     1
 73
     0
176
     1
 90
        2
176
     1
 40
0.6
176
     1
 41
30.0
176
     1
 63
     7
421
 16777215
176
     1
 74
     0
176
     1
 91
        0
176
     1
 64
     7
176
     1
 65
   257
176
     1
 75
     1
176
     1
175
     1
176
     1
 42
1.0
176
     1
 92
        8
176
     1
 66
   257
176
     1
 43
1.0
176
     1
 76
     1
176
     1
 77
     6
176
     1
 78
     2
176
     1
 67
     7
176
     1
 79
     3
176
     1
170
     0
176
     1
171
     0
176
     1
290
     0
176
     1
 93
       13
176
     1
 44
0.0
176
     1
173
     0
176
     1
1001
ACAD
1000
AcDbSavedByObjectVersion
1070
     0
  0
VISUALSTYLE
  5
3E
102
{ACAD_XDICTIONARY
360
7B3
102
}
102
{ACAD_REACTORS
330
29
102
}
330
29
100
AcDbVisualStyle
  2
Shaded
 70
    27
177
     2
291
     0
 71
     2
176
     1
 72
     2
176
     1
 73
     1
176
     1
 90
        2
176
     1
 40
0.6
176
     1
 41
30.0
176
     1
 63
     7
421
 16777215
176
     1
 74
     0
176
     1
 91
        4
176
     1
 64
     7
176
     1
 65
   257
176
     1
 75
     1
176
     1
175
     1
176
     1
 42
1.0
176
     1
 92
        8
176
     1
 66
   257
176
     1
 43
1.0
176
     1
 76
     1
176
     1
 77
     6
176
     1
 78
     2
176
     1
 67
     8
425
  7895160
176
     1
 79
     3
176
     1
170
     0
176
     1
171
     0
176
     1
290
     0
176
     1
 93
        5
176
     1
 44
0.0
176
     1
173
     0
176
     1
1001
ACAD
1000
AcDbSavedByObjectVersion
1070
     0
  0
VISUALSTYLE
  5
3D
102
{ACAD_XDICTIONARY
360
7B1
102
}
102
{ACAD_REACTORS
330
29
102
}
330
29
100
AcDbVisualStyle
  2
Shaded with edges
 70
    26
177
     2
291
     0
 71
     2
176
     1
 72
     2
176
     1
 73
     1
176
     1
 90
        2
176
     1
 40
0.6
176
     1
 41
30.0
176
     1
 63
     7
421
 16777215
176
     1
 74
     1
176
     1
 91
       10
176
     1
 64
     7
176
     1
 65
   257
176
     1
 75
     2
176
     1
175
     1
176
     1
 42
1.0
176
     1
 92
        8
176
     1
 66
   257
176
     1
 43
1.0
176
     1
 76
     1
176
     1
 77
     6
176
     1
 78
     2
176
     1
 67
     7
176
     1
 79
     3
176
     1
170
     0
176
     1
171
     0
176
     1
290
     0
176
     1
 93
        5
176
     1
 44
0.0
176
     1
173
     0
176
     1
1001
ACAD
1000
AcDbSavedByObjectVersion
1070
     0
  0
VISUALSTYLE
  5
3A
102
{ACAD_XDICTIONARY
360
7AB
102
}
102
{ACAD_REACTORS
330
29
102
}
330
29
100
AcDbVisualStyle
  2
Shades of Gray
 70
    23
177
     2
291
     0
 71
     2
176
     1
 72
     2
176
     1
 73
     3
176
     1
 90
        0
176
     1
 40
0.6
176
     1
 41
30.0
176
     1
 63
     7
421
 16777215
176
     1
 74
     2
176
     1
 91
        2
176
     1
 64
     7
176
     1
 65
     7
176
     1
 75
     1
176
     1
175
     1
176
     1
 42
40.0
176
     1
 92
        8
176
     1
 66
     7
176
     1
 43
1.0
176
     1
 76
     1
176
     1
 77
     6
176
     1
 78
     2
176
     1
 67
     7
176
     1
 79
     3
176
     1
170
     0
176
     1
171
     0
176
     1
290
     0
176
     1
 93
        1
176
     1
 44
0.0
176
     1
173
     0
176
     1
1001
ACAD
1000
AcDbSavedByObjectVersion
1070
     0
  0
VISUALSTYLE
  5
3B
102
{ACAD_XDICTIONARY
360
7AD
102
}
102
{ACAD_REACTORS
330
29
102
}
330
29
100
AcDbVisualStyle
  2
Sketchy
 70
    24
177
     2
291
     0
 71
     1
176
     1
 72
     2
176
     1
 73
     2
176
     1
 90
        0
176
     1
 40
0.6
176
     1
 41
30.0
176
     1
 63
     7
421
 16777215
176
     1
 74
     2
176
     1
 91
        2
176
     1
 64
     7
176
     1
 65
     7
176
     1
 75
     1
176
     1
175
     1
176
     1
 42
40.0
176
     1
 92
       11
176
     1
 66
     7
176
     1
 43
1.0
176
     1
 76
     1
176
     1
 77
     6
176
     1
 78
     2
176
     1
 67
     7
176
     1
 79
     6
176
     1
170
     0
176
     1
171
     0
176
     1
290
     0
176
     1
 93
        1
176
     1
 44
0.0
176
     1
173
     0
176
     1
1001
ACAD
1000
AcDbSavedByObjectVersion
1070
     0
  0
VISUALSTYLE
  5
36
102
{ACAD_XDICTIONARY
360
7A3
102
}
102
{ACAD_REACTORS
330
29
102
}
330
29
100
AcDbVisualStyle
  2
Thicken
 70
    13
177
     2
291
     1
 71
     2
176
     1
 72
     2
176
     1
 73
     0
176
     1
 90
        0
176
     1
 40
0.6
176
     1
 41
30.0
176
     1
 63
     7
421
 16777215
176
     1
 74
     1
176
     1
 91
        4
176
     1
 64
     7
176
     1
 65
   257
176
     1
 75
     1
176
     1
175
     1
176
     1
 42
1.0
176
     1
 92
       12
176
     1
 66
     7
176
     1
 43
1.0
176
     1
 76
     1
176
     1
 77
     6
176
     1
 78
     2
176
     1
 67
     7
176
     1
 79
     5
176
     1
170
     0
176
     1
171
     0
176
     1
290
     0
176
     1
 93
        1
176
     1
 44
0.0
176
     1
173
     0
176
     1
1001
ACAD
1000
AcDbSavedByObjectVersion
1070
     0
  0
VISUALSTYLE
  5
30
102
{ACAD_XDICTIONARY
360
797
102
}
102
{ACAD_REACTORS
330
29
102
}
330
29
100
AcDbVisualStyle
  2
Wireframe
 70
     5
177
     2
291
     0
 71
     0
176
     1
 72
     2
176
     1
 73
     0
176
     1
 90
        0
176
     1
 40
0.6
176
     1
 41
30.0
176
     1
 63
     7
421
 16777215
176
     1
 74
     1
176
     1
 91
        4
176
     1
 64
     7
176
     1
 65
   257
176
     1
 75
     1
176
     1
175
     1
176
     1
 42
1.0
176
     1
 92
        0
176
     1
 66
   257
176
     1
 43
1.0
176
     1
 76
     1
176
     1
 77
     6
176
     1
 78
     2
176
     1
 67
     7
176
     1
 79
     3
176
     1
170
     0
176
     1
171
     0
176
     1
290
     0
176
     1
 93
        1
176
     1
 44
0.0
176
     1
173
     0
176
     1
1001
ACAD
1000
AcDbSavedByObjectVersion
1070
     0
  0
VISUALSTYLE
  5
3C
102
{ACAD_XDICTIONARY
360
7AF
102
}
102
{ACAD_REACTORS
330
29
102
}
330
29
100
AcDbVisualStyle
  2
X-Ray
 70
    25
177
     2
291
     0
 71
     2
176
     1
 72
     2
176
     1
 73
     1
176
     1
 90
        1
176
     1
 40
0.5
176
     1
 41
30.0
176
     1
 63
     7
421
 16777215
176
     1
 74
     1
176
     1
 91
        0
176
     1
 64
     7
176
     1
 65
   257
176
     1
 75
     1
176
     1
175
     1
176
     1
 42
1.0
176
     1
 92
        8
176
     1
 66
     7
176
     1
 43
1.0
176
     1
 76
     1
176
     1
 77
     6
176
     1
 78
     2
176
     1
 67
     7
176
     1
 79
     3
176
     1
170
     0
176
     1
171
     0
176
     1
290
     0
176
     1
 93
       13
176
     1
 44
0.0
176
     1
173
     0
176
     1
1001
ACAD
1000
AcDbSavedByObjectVersion
1070
     0
  0
DICTIONARYVAR
  5
529
102
{ACAD_REACTORS
330
524
102
}
330
524
100
DictionaryVariables
280
     0
  1
1:1
  0
DICTIONARYVAR
  5
526
102
{ACAD_REACTORS
330
524
102
}
330
524
100
DictionaryVariables
280
     0
  1
STANDARD
  0
DICTIONARYVAR
  5
525
102
{ACAD_REACTORS
330
524
102
}
330
524
100
DictionaryVariables
280
     0
  1
STANDARD
  0
DICTIONARYVAR
  5
527
102
{ACAD_REACTORS
330
524
102
}
330
524
100
DictionaryVariables
280
     0
  1
Metric50
  0
DICTIONARYVAR
  5
528
102
{ACAD_REACTORS
330
524
102
}
330
524
100
DictionaryVariables
280
     0
  1
Metric50
  0
DICTIONARY
  5
7BF
330
6B
100
AcDbDictionary
280
     1
281
     1
  3
ACAD_XREC_ROUNDTRIP
360
7C0
  0
DICTIONARY
  5
522
330
73
100
AcDbDictionary
280
     1
281
     1
  3
ADSK_XREC_LAYOUTTHUMBNAIL
360
523
  0
DICTIONARY
  5
1A
330
19
100
AcDbDictionary
280
     1
281
     1
  3
BUMPTILE
360
1C
  3
DIFFUSETILE
360
1B
  3
OPACITYTILE
360
1F
  3
REFLECTIONTILE
360
1E
  3
REFRACTIONTILE
360
20
  3
SPECULARTILE
360
1D
  0
DICTIONARY
  5
12
330
11
100
AcDbDictionary
280
     1
281
     1
  3
BUMPTILE
360
14
  3
DIFFUSETILE
360
13
  3
OPACITYTILE
360
17
  3
REFLECTIONTILE
360
16
  3
REFRACTIONTILE
360
18
  3
SPECULARTILE
360
15
  0
DICTIONARY
  5
22
330
21
100
AcDbDictionary
280
     1
281
     1
  3
BUMPTILE
360
24
  3
DIFFUSETILE
360
23
  3
OPACITYTILE
360
27
  3
REFLECTIONTILE
360
26
  3
REFRACTIONTILE
360
28
  3
SPECULARTILE
360
25
  0
DICTIONARY
  5
7BB
330
67
100
AcDbDictionary
280
     1
281
     1
  3
ACAD_XREC_ROUNDTRIP
360
7BC
  0
XRECORD
  5
7C3
102
{ACAD_REACTORS
330
7C2
102
}
330
7C2
100
AcDbXrecord
280
     1
 70
     2
 71
     3
 72
     0
  0
DICTIONARY
  5
7BD
330
69
100
AcDbDictionary
280
     1
281
     1
  3
ACAD_XREC_ROUNDTRIP
360
7BE
  0
DICTIONARY
  5
788
330
65
100
AcDbDictionary
280
     1
281
     1
  3
ACAD_ROUNDTRIP_2008_TABLESTYLE_CELLSTYLEMAP
360
789
  0
DICTIONARY
  5
795
330
2F
100
AcDbDictionary
280
     1
281
     1
  3
ACAD_XREC_ROUNDTRIP
360
796
  0
DICTIONARY
  5
793
330
2E
100
AcDbDictionary
280
     1
281
     1
  3
ACAD_XREC_ROUNDTRIP
360
794
  0
DICTIONARY
  5
7A1
330
35
100
AcDbDictionary
280
     1
281
     1
  3
ACAD_XREC_ROUNDTRIP
360
7A2
  0
DICTIONARY
  5
7A9
330
39
100
AcDbDictionary
280
     1
281
     1
  3
ACAD_XREC_ROUNDTRIP
360
7AA
  0
DICTIONARY
  5
79B
330
32
100
AcDbDictionary
280
     1
281
     1
  3
ACAD_XREC_ROUNDTRIP
360
79C
  0
DICTIONARY
  5
79F
330
34
100
AcDbDictionary
280
     1
281
     1
  3
ACAD_XREC_ROUNDTRIP
360
7A0
  0
DICTIONARY
  5
7B9
330
41
100
AcDbDictionary
280
     1
281
     1
  3
ACAD_XREC_ROUNDTRIP
360
7BA
  0
DICTIONARY
  5
7A7
330
38
100
AcDbDictionary
280
     1
281
     1
  3
ACAD_XREC_ROUNDTRIP
360
7A8
  0
DICTIONARY
  5
78B
330
2A
100
AcDbDictionary
280
     1
281
     1
  3
ACAD_XREC_ROUNDTRIP
360
78C
  0
DICTIONARY
  5
78D
330
2B
100
AcDbDictionary
280
     1
281
     1
  3
ACAD_XREC_ROUNDTRIP
360
78E
  0
DICTIONARY
  5
78F
330
2C
100
AcDbDictionary
280
     1
281
     1
  3
ACAD_XREC_ROUNDTRIP
360
790
  0
DICTIONARY
  5
791
330
2D
100
AcDbDictionary
280
     1
281
     1
  3
ACAD_XREC_ROUNDTRIP
360
792
  0
DICTIONARY
  5
799
330
31
100
AcDbDictionary
280
     1
281
     1
  3
ACAD_XREC_ROUNDTRIP
360
79A
  0
DICTIONARY
  5
7B5
330
3F
100
AcDbDictionary
280
     1
281
     1
  3
ACAD_XREC_ROUNDTRIP
360
7B6
  0
DICTIONARY
  5
7A5
330
37
100
AcDbDictionary
280
     1
281
     1
  3
ACAD_XREC_ROUNDTRIP
360
7A6
  0
DICTIONARY
  5
7B7
330
40
100
AcDbDictionary
280
     1
281
     1
  3
ACAD_XREC_ROUNDTRIP
360
7B8
  0
DICTIONARY
  5
79D
330
33
100
AcDbDictionary
280
     1
281
     1
  3
ACAD_XREC_ROUNDTRIP
360
79E
  0
DICTIONARY
  5
7B3
330
3E
100
AcDbDictionary
280
     1
281
     1
  3
ACAD_XREC_ROUNDTRIP
360
7B4
  0
DICTIONARY
  5
7B1
330
3D
100
AcDbDictionary
280
     1
281
     1
  3
ACAD_XREC_ROUNDTRIP
360
7B2
  0
DICTIONARY
  5
7AB
330
3A
100
AcDbDictionary
280
     1
281
     1
  3
ACAD_XREC_ROUNDTRIP
360
7AC
  0
DICTIONARY
  5
7AD
330
3B
100
AcDbDictionary
280
     1
281
     1
  3
ACAD_XREC_ROUNDTRIP
360
7AE
  0
DICTIONARY
  5
7A3
330
36
100
AcDbDictionary
280
     1
281
     1
  3
ACAD_XREC_ROUNDTRIP
360
7A4
  0
DICTIONARY
  5
797
330
30
100
AcDbDictionary
280
     1
281
     1
  3
ACAD_XREC_ROUNDTRIP
360
798
  0
DICTIONARY
  5
7AF
330
3C
100
AcDbDictionary
280
     1
281
     1
  3
ACAD_XREC_ROUNDTRIP
360
7B0
  0
XRECORD
  5
7C0
102
{ACAD_REACTORS
330
7BF
102
}
330
7BF
100
AcDbXrecord
280
     1
102
DISPLAYNAME
  1
Metric50
102
FLAGS
 90
        0
  0
XRECORD
  5
523
102
{ACAD_REACTORS
330
522
102
}
330
522
100
AcDbXrecord
280
     1
310
28000000000100005D0000000100080000000000005D0000010000000100000000010000000000003028216600000052C8C8C85600000050000000730000003200000031000000500000006F0000004F00000032330000466600006699000052CC000056FF00005000330073333300326633003199330050CC33006FFF3300
310
3200660018336600006666000099660000CC660000FF66000000990000339900006699000099990000CC990000FF99000000CC000033CC000066CC000099CC0000CCCC0000FFCC000000FF000033FF000066FF000099FF0000CCFF0000FFFF00010000331433003354660033539900336FCC003374FF003330003333303333
310
33726633337099333370CC333330FF3333010066331233663354666633539966336FCC663374FF66333000993330339933726699337099993331CC993300FF99330000CC330033CC330066CC330099CC3300CCCC3300FFCC330000FF330033FF330066FF330099FF3300CCFF3300FFFF330000006600330066006600660099
310
006600CC006600FF00660000336600333366006633660099336666CC336652FF33665600666650336666736666663299666631CC666650FF66666F0099664F339966336699664699996666CC996652FF99665600CC665033CC667366CC663299CC6631CCCC6650FFCC666F00FF663333FF661866FF660099FF6600CCFF6600
310
FFFF660000009900330099006600990099009900CC009900FF00990000339900333399006633990099339900CC339900FF33990000669900336699006666990099669900CC669900FF66990000999901339999146699995499999953CC99996FFF99997400CC993033CC993066CC997299CC9970CCCC9970FFCC993400FF99
310
0133FF991266FF995499FF9953CCFF996FFFFF99740000CC303300CC306600CC729900CC70CC00CC35FF00CC000033CC003333CC006633CC009933CC00CC33CC00FF33CC000066CC003366CC006666CC009966CC00CC66CC00FF66CC000099CC003399CC006699CC009999CC00CC99CC00FF99CC0000CCCC0033CCCC0066CC
310
CC0099CCCC00CCCCCC66FFCCCC5200FFCC5633FFCC5066FFCC7399FFCC32CCFFCC31FFFFCC500000FF6F3300FF4F6600FF339900FF46CC00FF66FF00FF520033FF563333FF506633FF739933FF32CC33FF31FF33FF500066FF6F3366FF336666FF5A9966FF00CC66FF14FF66FF540099FF533399FF6F6699FF749999FF30CC
310
99FF30FF99FF7200CCFF7033CCFF7066CCFF3799CCFF01CCCCFF12FFCCFF5400FFFF5333FFFF6F66FFFF7499FFFF30CCFFFF30FFFFFF72000000700D0D0D381A1A1A00282828003535356643434352505050565D5D5D506B6B6B73787878328686863193939350A1A1A16FAEAEAE4FBBBBBB33C9C9C946D6D6D666E4E4E452
310
F1F1F156FFFFFF50000000730000003200000031000000500000006F000000330000008C00000000000000F0000000B100000000000000000000000000000000000000000000000000000000000000000000000000000000000000000000000000000000000000000000000000000000000000000000000000000000000000
310
00000000000000000000000000000000000000000000000000000000000000000000000000000000000000000000000000000000000000000000000000000000000000000000000000000000000000000000000000000000000000000000000000000000000000000000000000000000000000000000000000000000000000
310
00000000000000000000000000000000000000000000000000000000000000000000000000000000000000000000000000000000000000000000000000000000000000000000000000000000000000000000000000000000000000000000000000000000000000000000000000000000000000000000000000000000000000
310
00000000000000000000000000000000000000000000000000000000000000000000000000000000000000000000000000000000000000000000000000000000000000000000000000000000000000000000000000000000000000000000000000000000000000000000000000000000000000000000000000000000000000
310
00000000000000000000000000000000000000000000000000000000000000000000000000000000000000000000000000000000000000000000000000000000000000000000000000000000000000000000000000000000000000000000000000000000000000000000000000000000000000000000000000000000000000
310
00000000000000000000000000000000000000000000000000000000000000000000000000000000000000000000000000000000000000000000000000000000000000000000000000000000000000000000000000000000000000000000000000000000000000000000000000000000000000000000000000000000000000
310
00000000000000000000000000000000000000000000000000000000000000000000000000000000000000000000000000000000000000000000000000000000000000000000000000000000000000000000000000000000000000000000000000000000000000000000000000000000000000000000000000000000000000
310
00000000000000000000000000000000000000000000000000000000000000000000000000000000000000000000000000000000000000000000000000000000000000000000000000000000000000000000000000000000000000000000000000000000000000000000000000000000000000000000000000000000000000
310
00000000000000000000000000000000000000000000000000000000000000000000000000000000000000000000000000000000000000000000000000000000000000000000000000000000000000000000000000000000000000000000000000000000000000000000000000000000000000000000000000000000000000
310
00000000000000000000000000000000000000000000000000000000000000000000000000000000000000000000000000000000000000000000000000000000000000000000000000000000000000000000000000000000000000000000000000000000000000000000000000000000000000000000000000000000000000
310
00000000000000000000000000000000000000000000000000000000000000000000000000000000000000000000000000000000000000000000000000000000000000000000000000000000000000000000000000000000000000000000000000000000000000000000000000000000000000000000000000000000000000
310
00000000000000000000000000000000000000000000000000000000000000000000000000000000000000000000000000000000000000000000000000000000000000000000000000000000000000000000000000000000000000000000000000000000000000000000000000000000000000000000000000000000000000
310
00000000000000000000000000000000000000000000000000000000000000000000000000000000000000000000000000000000000000000000000000000000000000000000000000000000000000000000000000000000000000000000000000000000000000000000000000000000000000000000000000000000000000
310
00000000000000000000000000000000000000000000000000000000000000000000000000000000000000000000000000000000000000000000000000000000000000000000000000000000000000000000000000000000000000000000000000000000000000000000000000000000000000000000000000000000000000
310
00000000000000000000000000000000000000000000000000000000000000000000000000000000000000000000000000000000000000000000000000000000000000000000000000000000000000000000000000000000000000000000000000000000000000000000000000000000000000000000000000000000000000
310
00000000000000000000000000000000000000000000000000000000000000000000000000000000000000000000000000000000000000000000000000000000000000000000000000000000000000000000000000000000000000000000000000000000000000000000000000000000000000000000000000000000000000
310
00000000000000000000000000000000000000000000000000000000000000000000000000000000000000000000000000000000000000000000000000000000000000000000000000000000000000000000000000000000000000000000000000000000000000000000000000000000000000000000000000000000000000
310
00000000000000000000000000000000000000000000000000000000000000000000000000000000000000000000000000000000000000000000000000000000000000000000000000000000000000000000000000000000000000000000000000000000000000000000000000000000000000000000000000000000000000
310
00000000000000000000000000000000000000000000000000000000000000000000000000000000000000000000000000000000000000000000000000000000000000000000000000000000000000000000000000000000000000000000000000000000000000000000000000000000000000000000000000000000000000
310
00000000000000000000000000000000000000000000000000000000000000000000000000000000000000000000000000000000000000000000000000000000000000000000000000000000000000000000000000000000000000000000000000000000000000000000000000000000000000000000000000000000000000
310
00000000000000000000000000000000000000000000000000000000000000000000000000000000000000000000000000000000000000000000000000000000000000000000000000000000000000000000000000000000000000000000000000000000000000000000000000000000000000000000000000000000000000
310
00000000000000000000000000000000000000000000000000000000000000000000000000000000000000000000000000000000000000000000000000000000000000000000000000000000000000000000000000000000000000000000000000000000000000000000000000000000000000000000000000000000000000
310
00000000000000000000000000000000000000000000000000000000000000000000000000000000000000000000000000000000000000000000000000000000000000000000000000000000000000000000000000000000000000000000000000000000000000000000000000000000000000000000000000000000000000
310
00000000000000000000000000000000000000000000000000000000000000000000000000000000000000000000000000000000000000000000000000000000000000000000000000000000000000000000000000000000000000000000000000000000000000000000000000000000000000000000000000000000000000
310
00000000000000000000000000000000000000000000000000000000000000000000000000000000000000000000000000000000000000000000000000000000000000000000000000000000000000000000000000000000000000000000000000000000000000000000000000000000000000000000000000000000000000
310
00000000000000000000000000000000000000000000000000000000000000000000000000000000000000000000000000000000000000000000000000000000000000000000000000000000000000000000000000000000000000000000000000000000000000000000000000000000000000000000000000000000000000
310
00000000000000000000000000000000000000000000000000000000000000000000000000000000000000000000000000000000000000000000000000000000000000000000000000000000000000000000000000000000000000000000000000000000000000000000000000000000000000000000000000000000000000
310
00000000000000000000000000000000000000000000000000000000000000000000000000000000000000000000000000000000000000000000000000000000000000000000000000000000000000000000000000000000000000000000000000000000000000000000000000000000000000000000000000000000000000
310
00000000000000000000000000000000000000000000000000000000000000000000000000000000000000000000000000000000000000000000000000000000000000000000000000000000000000000000000000000000000000000000000000000000000000000000000000000000000000000000000000000000000000
310
00000000000000000000000000000000000000000000000000000000000000000000000000000000000000000000000000000000000000000000000000000000000000000000000000000000000000000000000000000000000000000000000000000000000000000000000000000000000000000000000000000000000000
310
00000000000000000000000000000000000000000000000000000000000000000000000000000000000000000000000000000000000000000000000000000000000000000000000000000000000000000000000000000000000000000000000000000000000000000000000000000000000000000000000000000000000000
310
00000000000000000000000000000000000000000000000000000000000000000000000000000000000000000000000000000000000000000000000000000000000000000000000000000000000000000000000000000000000000000000000000000000000000000000000000000000000000000000000000000000000000
310
00000000000000000000000000000000000000000000000000000000000000000000000000000000000000000000000000000000000000000000000000000000000000000000000000000000000000000000000000000000000000000000000000000000000000000000000000000000000000000000000000000000000000
310
00000000000000000000000000000000000000000000000000000000000000000000000000000000000000000000000000000000000000000000000000000000000000000000000000000000000000000000000000000000000000000000000000000000000000000000000000000000000000000000000000000000000000
310
00000000000000000000000000000000000000000000000000000000000000000000000000000000000000000000000000000000000000000000000000000000000000000000000000000000000000000000000000000000000000000000000000000000000000000000000000000000000000000000000000000000000000
310
00000000000000000000000000000000000000000000000000000000000000000000000000000000000000000000000000000000000000000000000000000000000000000000000000000000000000000000000000000000000000000000000000000000000000000000000000000000000000000000000000000000000000
310
00000000000000000000000000000000000000000000000000000000000000000000000000000000000000000000000000000000000000000000000000000000000000000000000000000000000000000000000000000000000000000000000000000000000000000000000000000000000000000000000000000000000000
310
00000000000000000000000000000000000000000000000000000000000000000000000000000000000000000000000000000000000000000000000000000000000000000000000000000000000000000000000000000000000000000000000000000000000000000000000000000000000000000000000000000000000000
310
00000000000000000000000000000000000000000000000000000000000000000000000000000000000000000000000000000000000000000000000000000000000000000000000000000000000000000000000000000000000000000000000000000000000000000000000000000000000000000000000000000000000000
310
00000000000000000000000000000000000000000000000000000000000000000000000000000000000000000000000000000000000000000000000000000000000000000000000000000000000000000000000000000000000000000000000000000000000000000000000000000000000000000000000000000000000000
310
00000000000000000000000000000000000000000000000000000000000000000000000000000000000000000000000000000000000000000000000000000000000000000000000000000000000000000000000000000000000000000000000000000000000000000000000000000000000000000000000000000000000000
310
00000000000000000000000000000000000000000000000000000000000000000000000000000000000000000000000000000000000000000000000000000000000000000000000000000000000000000000000000000000000000000000000000000000000000000000000000000000000000000000000000000000000000
310
00000000000000000000000000000000000000000000000000000000000000000000000000000000000000000000000000000000000000000000000000000000000000000000000000000000000000000000000000000000000000000000000000000000000000000000000000000000000000000000000000000000000000
310
00000000000000000000000000000000000000000000000000000000000000000000000000000000000000000000000000000000000000000000000000000000000000000000000000000000000000000000000000000000000000000000000000000000000000000000000000000000000000000000000000000000000000
310
00000000000000000000000000000000000000000000000000000000000000000000000000000000000000000000000000000000000000000000000000000000000000000000000000000000000000000000000000000000000000000000000000000000000000000000000000000000000000000000000000000000000000
310
00000000000000000000000000000000000000000000000000000000000000000000000000000000000000000000000000000000000000000000000000000000000000000000000000000000000000000000000000000000000000000000000000000000000000000000000000000000000000000000000000000000000000
310
00000000000000000000000000000000000000000000000000000000000000000000000000000000000000000000000000000000000000000000000000000000000000000000000000000000000000000000000000000000000000000000000000000000000000000000000000000000000000000000000000000000000000
310
00000000000000000000000000000000000000000000000000000000000000000000000000000000000000000000000000000000000000000000000000000000000000000000000000000000000000000000000000000000000000000000000000000000000000000000000000000000000000000000000000000000000000
310
00000000000000000000000000000000000000000000000000000000000000000000000000000000000000000000000000000000000000000000000000000000000000000000000000000000000000000000000000000000000000000000000000000000000000000000000000000000000000000000000000000000000000
310
00000000000000000000000000000000000000000000000000000000000000000000000000000000000000000000000000000000000000000000000000000000000000000000000000000000000000000000000000000000000000000000000000000000000000000000000000000000000000000000000000000000000000
310
00000000000000000000000000000000000000000000000000000000000000000000000000000000000000000000000000000000000000000000000000000000000000000000000000000000000000000000000000000000000000000000000000000000000000000000000000000000000000000000000000000000000000
310
00000000000000000000000000000000000000000000000000000000000000000000000000000000000000000000000000000000000000000000000000000000000000000000000000000000000000000000000000000000000000000000000000000000000000000000000000000000000000000000000000000000000000
310
00000000000000000000000000000000000000000000000000000000000000000000000000000000000000000000000000000000000000000000000000000000000000000000000000000000000000000000000000000000000000000000000000000000000000000000000000000000000000000000000000000000000000
310
00000000000000000000000000000000000000000000000000000000000000000000000000000000000000000000000000000000000000000000000000000000000000000000000000000000000000000000000000000000000000000000000000000000000000000000000000000000000000000000000000000000000000
310
00000000000000000000000000000000000000000000000000000000000000000000000000000000000000000000000000000000000000000000000000000000000000000000000000000000000000000000000000000000000000000000000000000000000000000000000000000000000000000000000000000000000000
310
00000000000000000000000000000000000000000000000000000000000000000000000000000000000000000000000000000000000000000000000000000000000000000000000000000000000000000000000000000000000000000000000000000000000000000000000000000000000000000000000000000000000000
310
00000000000000000000000000000000000000000000000000000000000000000000000000000000000000000000000000000000000000000000000000000000000000000000000000000000000000000000000000000000000000000000000000000000000000000000000000000000000000000000000000000000000000
310
00000000000000000000000000000000000000000000000000000000000000000000000000000000000000000000000000000000000000000000000000000000000000000000000000000000000000000000000000000000000000000000000000000000000000000000000000000000000000000000000000000000000000
310
00000000000000000000000000000000000000000000000000000000000000000000000000000000000000000000000000000000000000000000000000000000000000000000000000000000000000000000000000000000000000000000000000000000000000000000000000000000000000000000000000000000000000
310
00000000000000000000000000000000000000000000000000000000000000000000000000000000000000000000000000000000000000000000000000000000000000000000000000000000000000000000000000000000000000000000000000000000000000000000000000000000000000000000000000000000000000
310
00000000000000000000000000000000000000000000000000000000000000000000000000000000000000000000000000000000000000000000000000000000000000000000000000000000000000000000000000000000000000000000000000000000000000000000000000C3C3C3C3C3C3C3C3C3C3C3C3C3C3C3C3C3C3
310
C3C3C3C3000000C3C3C3C3C3C3C3C3C3C3C3C3C3C3C3C3C3C3C3C3C3C3C3000000C3C3C3C3C3C3C3C3C3C3C3C3C3C3C3C3C3C3C3C3C3C3C3000000C3C3C3C3C3C3C3C3C3C3C3C3C3C3C3C3C3C3C3C3C3C300000000C3C3C3C3C3C3C3C3C3C3C3C3C3C3C3C3C3C3C3C3C3C300000000C3C3C3C3C3C3C3C3C3C3C3C3C3C3C3C3
310
C3C3C3C3C3C300000000C3C3C3C3C3C3C3C3C3C3C3C3C3C3C3C3C3C3C3C3C3C3000000C3C3C3C3C3C3C3C3C3C3C3C3C3C3C3C3C3C3C3C3C3C3C3000000C3C3C3C3C3C3C3C3C3C3C3C3C3C3C3C3C3C3C3C3C3C3C3000000C3C3C3C3C3C3C3C3C3C3C3C3C3C3C3C3C3C3C3C3C3C30000C3000000DCDC00000000000000000000
310
0000000000C3000000C3000000000000000000000000000000DCDCDC000000C3000000C3000000DCDC00000000000000000000000000000000C3000000C30000000000000000000000000000000000000000C300000000C30000000000000000000000000000000000000000C300000000C300000000000000000000000000
310
00000000000000C300000000C30000000000000000000000000000000000000000C3000000C3000000000000000000000000000000000000000000C3000000C3DCDCDCDCDCDCDCDCDCDCDCDCDCDCDCDCDCDCDCDCDCC3000000C3DCDCDCDCDCDCDCDCDCDCDCDCDCDCDCDCDCDCDCDCC30000C300DCDCDC28DCDC282828DCDC28
310
282828DCDCDCDCC3000000C3DCDCDCDC28282828DCDC28282828DC2800DCDC0000C3000000C30000DCDC28DCDC28282828DCDC282828DCDCDCDC00C3000000DCDCDCDCDC28282828DCDC282828DCDCDC28282828C300000000C328282828DCDCDC28282828DCDC282828DCDCDCDCC300000000DCDCDCDCDC282828DCDC2828
310
2828DCDCDCDCDCDCDCC300000000C328282828DCDCDC282828DCDC28282828DCDCDCDCC3000000C3DCDCDCDCDC282828DCDC28282828DCDC2828282828C3000000C3DC0000000000DC000000000000DC000000000000DCC3000000C3000000000000DC000000000000DC000000000000C30000C3000000DC28000F0F0F0F00
310
00282828280F0F0F0FDC000000C30F0F0F0F28282828000028282828002800DC000000C3000000C3000000DC2800002828282800002828280000DCDCDCC3000000DCDCDC00002828282800002828280000DCDC0000DCC300000000C3DC0000DCDC00002828282800002828280000DCDCDC00000000DCDCDC00002828280000
310
282828280000DCDC0000DCC300000000C3DC0000DCDC00002828280000282828280000DCDCDC000000C3DCDCDC000028282800002828282800DC2828282828C3000000C3DC2828282828DC002828282828DC002828282800DCC3000000C3002828282800DC002828282800DC002828282800C30000C3000000DC28000F0F0F
310
0F0F0F0F0000000F0F0000DC000000C300DC000F000000000000000F0F0F002800DC000000C3000000C3000000DC28000000000000000000000000000000DCC3000000C3DC0000000000000000000000000000DCDC0000DCC300000000C3DC0000DCDC000000000000000000000000000000DC00000000C3DC000000000000
310
0000000000000000DCDC0000DCC300000000C3DC0000DCDC000000000000000000000000000000DC000000C300DC00000000000000000000000000DC2828282828C3000000C3DCF5F5F5F528DC00F5F5F5F528DC00F5F5F5F500DCC3000000C300F5F5F5F500DC00F5F5F5F500DC00F5F5F5F500C30000C3000000DC282800
310
0000000000000000000F0F00DCDC000000C3DCDC000F000000000000000F0F0F0F2800DC000000C3000000C3000000DC282800000000000000000000000000DCDCC3000000DCDC0000000000000000000000000028DCDC2828DCC300000000C3DC2828DCDC2800000000000000000000000000DCDC00000000DCDC00000000
310
00000000000000000028DCDC2828DCC300000000C3DC2828DCDC2800000000000000000000000000DCDC000000C3DCDC00000000000000000000000000282800282828C3000000C3DC280000F528DC00280000F528DC00280000F500DCC3000000C300280000F500DC00280000F500DC002800F5F500C30000C3000000DC28
310
28000000000000000000000F0F00DCC3000000C3DC00000F00000000000000000000002800DC000000C3000000C3000000DC282800000000000000000000000000DC00C3000000DC000000000000000000000000000028DCDC0000DCC300000000C3DC0000DCDC2800000000000000000000000000DCC300000000DC000000
310
000000000000000000000028DCDC0000DCC300000000C3DC0000DCDC2800000000000000000000000000DCC3000000C3DC0000000000000000000000000000282800282828C3000000C3DC280000F528DC00280000F528DC00280000F500DCC3000000C300280000F500DC00280000F500DC002800F5F500C30000C3000000
310
DC2800000000000000000000000F0F00DCC3000000C3DC00000F00000000000000000000002800DC000000C3000000C3000000DC280000000000000000000000000000DC00C3000000DC000000000000000000000000000000DCDC2828DCC300000000C3DC2828DCDC0000000000000000000000000000DCC300000000DC00
310
0000000000000000000000000000DCDC2828DCC300000000C3DC2828DCDC0000000000000000000000000000DCC3000000C3DC0000000000000000000000000000DC2828282828C3000000C3DC280000F528DC00280000F528DC00280000F500DCC3000000C300280000F500DC00280000F500DC002800F5F500C30000C300
310
0000DC2800000000000000000000000F0F00DCDC000000C3DCDC000F00000000000000000000002800DC000000C3000000C3000000DC280000000000000000000000000000DCDCC3000000DCDC0000000000000000000000000000DCDC0000DCC300000000C3DC0000DCDC0000000000000000000000000000DCDC00000000
310
DCDC0000000000000000000000000000DCDC0000DCC300000000C3DC0000DCDC0000000000000000000000000000DCDC000000C3DCDC00000000000000000000000000DC00DCDCDCDCC3000000C3DC280000F528DC00280000F528DC00280000F500DCC3000000C300280000F500DC00280000F500DC002800F5F500C30000
310
C30000DC002800000000000000000000000F0F0000DC000000C300DC000F0000000000000000000000280000DC0000C3000000C30000DC0028000000000000000000000000000000DCC3000000C3DC0000000000000000000000000000DCDC0000DCC300000000C3DC0000DCDC000000000000000000000000000000DC0000
310
0000C3DC0000000000000000000000000000DCDC0000DCC300000000C3DC0000DCDC000000000000000000000000000000DC000000C300DC00000000000000000000000000DC00DC0000DCC3000000C3DC280000F528DC00280000F528DC00280000F500DCC3000000C300280000F500DC00280000F500DC002800F5F500C3
310
0000C300DC00282828000000000000000000000F0F00DCDC000000C3DCDC000F000000000000000000000028002800DC00C3000000C300DC0028282800000000000000000000000000DCDCC3000000DCDC0000000000000000000000000028DC28282828C300000000C328282828DC2800000000000000000000000000DCDC
310
00000000DCDC0000000000000000000000000028DC28282828C300000000C328282828DC2800000000000000000000000000DCDC000000C3DCDC000000000000000000000000002800DC0000DCC3000000C3DC280000F528DC00280000F528DC00280000F500DCC3000000C300280000F500DC00280000F500DC002800F5F5
310
00C30000C3DC2828282828000F0F0F0F0F0F0000000F0F00DCC3000000C3DC00000F000000000F0F0F0F0F0F0028002828DC00C3000000C3DC002828282800002800000028000000000000DC00C3000000DC000000000000002828000000280028DCDC0000DCC300000000C3DC0000DCDC2800000000000000000000000000
310
DCC300000000DC000000000000000000000000000028DCDC0000DCC300000000C3DC0000DCDC2800000000000000000000000000DCC3000000C3DC00000000000000000000000000002800DC2828DCC3000000C3DC280000F528DC00280000F528DC00280000F500DCC3000000C300280000F500DC00280000F500DC002800
310
F5F500C30000DC280000282800000F000000000F0000000F0F00DCDC000000C3DCDC000F000000000F000000000F002800280028DCC3000000DC00280028280000000000000000000000000000DCDCC3000000DCDC0000000000000000000000000000DCDC0000DCC300000000C3DC0000DCDC000000000000000000000000
310
0000DCDC00000000DCDC0000000000000000000000000000DCDC0000DCC300000000C3DC0000DCDC0000000000000000000000000000DCDC000000C3DCDC00000000000000000000000000DC00DC0000DCC3000000C3DC280000F528DC00280000F528DC00280000F500DCC3000000C300280000F500DC00280000F500DC00
310
2800F5F500C30000DC280000282800000F000000000F0000000F0F0000DC000000C300DC000F000000000F000000000F002800280028DCC3000000DC0028002828000000000000000000000000000000DCC3000000C3DC0000000000000000000000000000DC28282828C300000000C328282828DC00000000000000000000
310
0000000000DC00000000C3DC0000000000000000000000000000DC28282828C300000000C328282828DC000000000000000000000000000000DC000000C300DC00000000000000000000000000DC00DC2828DCC3000000C3DC280000F528DC00280000F528DC00280000F500DCC3000000C300280000F500DC00280000F500
310
DC002800F5F500C30000DC280000282800000F000000000F0000000F0F00DCDC000000C3DCDC000F000000000F000000000F002800280028DCC3000000DC00280028280000000000000000000000000000DCDCC3000000DCDC0000000000000000000000000000DCDC0000DCC300000000C3DC0000DCDC0000000000000000
310
000000000000DCDC00000000DCDC0000000000000000000000000000DCDC0000DCC300000000C3DC0000DCDC0000000000000000000000000000DCDC000000C3DCDC00000000000000000000000000DC00DC0000DCC3000000C3DC280000F528DC00280000F528DC00280000F500DCC3000000C300280000F500DC00280000
310
F500DC002800F5F500C30000DC280000282828000F000000000F0000000F0F00DCC3000000C3DC00000F000000000F000000000F002800280028DCC3000000DC00280028282800000000000000000000000000DC00C3000000DC000000000000000000000000000028DC28282828C300000000C328282828DC280000000000
310
0000000000000000DCC300000000DC000000000000000000000000000028DC28282828C300000000C328282828DC2800000000000000000000000000DCC3000000C3DC00000000000000000000000000002800DC0000DCC3000000C3DC280000F528DC00280000F528DC00280000F500DCC3000000C300280000F500DC0028
310
0000F500DC002800F5F500C30000DC280000282828000F000000000F0000000F0F00DCDC000000C3DCDC000F000000000F000000000F002800280028DCC3000000DC00280028282800000000000000000000000000DCDCC3000000DCDC0000000000000000000000000028DCDC0000DCC300000000C3DC0000DCDC28000000
310
00000000000000000000DCDC00000000DCDC0000000000000000000000000028DCDC0000DCC300000000C3DC0000DCDC2800000000000000000000000000DCDC000000C3DCDC00000000000000000000000000280028282828C3000000C3DC280000F528DC00280000F528DC00280000F500DCC3000000C300280000F500DC
310
00280000F500DC002800F5F500C30000DC280000282828000F000000000F0000000F0F0000DC000000C300DC000F000000000F000000000F002800280028DCC3000000DC0028002828280000000000000000000000000000DCC3000000C3DC0000000000000000000000000028DC28282828C300000000C328282828DC2800
310
00000000000000000000000000DC00000000C3DC0000000000000000000000000028DC28282828C300000000C328282828DC280000000000000000000000000000DC000000C300DC000000000000000000000000002800DC0000DCC3000000C3DC280000F528DC00280000F528DC00280000F500DCC3000000C300280000F5
310
00DC00280000F500DC002800F5F500C30000DC280000282800000F0F0F0F0F0F0000000F0F00DCDC000000C3DCDC000F000000000F0F0F0F0F0F002800280028DCC3000000DC00280028280000002800000028000000000000DCDCC3000000DCDC0000000000002828000000280000DC28282828C300000000C328282828DC
310
0000000000000000000000000000DCDC00000000DCDC0000000000000000000000000000DC28282828C300000000C328282828DC0000000000000000000000000000DCDC000000C3DCDC00000000000000000000000000DC00DC0000DCC3000000C3DC280000F528DC00280000F528DC00280000F500DCC3000000C3002800
310
00F500DC00280000F500DC002800F5F500C30000DC280000282800000000000000000000000F0F00DCC3000000C3DC00000F00000000000000000000002800280028DCC3000000DC00280028280000000000000000000000000000DC00C3000000DC000000000000000000000000000000DC28282828C300000000C3282828
310
28DC0000000000000000000000000000DCC300000000DC000000000000000000000000000000DC28282828C300000000C328282828DC0000000000000000000000000000DCC3000000C3DC0000000000000000000000000000DC0028282828C3000000C3DC280000F528DC00280000F528DC00280000F500DCC3000000C300
310
280000F500DC00280000F500DC002800F5F500C30000C3DC2828282828000000000000000000000F0F00DCDC000000C3DCDC000F000000000000000000000028002828DC00C3000000C3DC002828282800000000000000000000000000DCDCC3000000DCDC0000000000000000000000000028DCDC0000DCC300000000C3DC
310
0000DCDC2800000000000000000000000000DCDC00000000DCDC0000000000000000000000000028DCDC0000DCC300000000C3DC0000DCDC2800000000000000000000000000DCDC000000C3DCDC00000000000000000000000000280028282828C3000000C3DC280000F528DC00280000F528DC00280000F500DCC3000000
310
C300280000F500DC00280000F500DC002800F5F500C30000C300DC00282828000000000000000000000F0F0000DC000000C300DC000F000000000000000000000028002800DC00C3000000C300DC002828280000000000000000000000000000DCC3000000C3DC0000000000000000000000000028DC28282828C300000000
310
C328282828DC280000000000000000000000000000DC00000000C3DC0000000000000000000000000028DC28282828C300000000C328282828DC280000000000000000000000000000DC000000C300DC000000000000000000000000002800DCDCDCDCC3000000C3DC280000F528DC00280000F528DC00280000F500DCC300
310
0000C300280000F500DC00280000F500DC002800F5F500C30000C30000DC002828000000000000000000000F0F0000DC000000C300DC000F0000000000000000000000280000DC0000C3000000C30000DC0028280000000000000000000000000000DCC3000000C3DC0000000000000000000000000028DC28282828C30000
310
0000C328282828DC280000000000000000000000000000DC00000000C3DC0000000000000000000000000028DC28282828C300000000C328282828DC280000000000000000000000000000DC000000C300DC00000000000000000000000000280000000000C3000000C3DC280000F528DC00280000F528DC00280000F500DC
310
C3000000C300280000F500DC00280000F500DC002800F5F500C30000C3000000DC2800000000000000000000000F0F00DCDC000000C3DCDC000F00000000000000000000002800DC000000C3000000C3000000DC280000000000000000000000000000DCDCC3000000DCDC0000000000000000000000000000DCDCDCDCDCC3
310
00000000C3DCDCDCDCDC0000000000000000000000000000DCDC00000000DCDC0000000000000000000000000000DCDCDCDCDCC300000000C3DCDCDCDCDC0000000000000000000000000000DCDC000000C3DCDC00000000000000000000000000DC0000000000C3000000C3DC280000F528DC00280000F528DC00280000F5
310
00DCC3000000C300280000F500DC00280000F500DC002800F5F500C30000C3000000DC2800000000000000000000000F0F00DCC3000000C3DC00000F00000000000000000000002800DC000000C3000000C3000000DC280000000000000000000000000000DC00C3000000DC000000000000000000000000000000DC000000
310
00C300000000C300000000DC0000000000000000000000000000DCC300000000DC000000000000000000000000000000DC00000000C300000000C300000000DC0000000000000000000000000000DCC3000000C3DC0000000000000000000000000000DC0000000000C3000000C3DC280000F528DC00280000F528DC002800
310
00F500DCC3000000C300280000F500DC00280000F500DC002800F5F500C30000C3000000DC2800000000000000000000000F0F00DCDC000000C3DCDC000F00000000000000000000002800DC000000C3000000C3000000DC280000000000000000000000000000DCDCC3000000DCDC0000000000000000000000000000DC00
310
000000C300000000C300000000DC0000000000000000000000000000DCDC00000000DCDC0000000000000000000000000000DC00000000C300000000C300000000DC0000000000000000000000000000DCDC000000C3DCDC00000000000000000000000000DC0000000000C3000000C3DC280000F528DC00280000F528DC00
310
280000F500DCC3000000C300280000F500DC00280000F500DC002800F5F500C30000C3000000DC2800000000000000000000000F0F0F0F0F000000C3000F0F0F00000000000000000000002800DC000000C3000000C3000000DC28000000000000000000000000000000DCC3000000C3DC0000000000000000000000000000
310
DC00000000C300000000C300000000DC000000000000000000000000000000DC00000000C3DC0000000000000000000000000000DC00000000C300000000C300000000DC000000000000000000000000000000DC000000C300DC00000000000000000000000000DC0000000000C3000000C3DC280000F528DC00280000F528
310
DC00280000F500DCC3000000C300280000F500DC00280000F500DC002800F5F500C30000C3000000DC280000000000000000000000000000DCDC000000C3DCDC000000000000000000000000002800DC000000C3000000C3000000DC280000000000000000000000000000DCDCC3000000DCDC000000000000000000000000
310
0000DC00000000C300000000C300000000DC0000000000000000000000000000DCDC00000000DCDC0000000000000000000000000000DC00000000C300000000C300000000DC0000000000000000000000000000DCDC000000C3DCDC00000000000000000000000000DC0000000000C3000000C3DCF5F5F5F528DC00F5F5F5
310
F528DC00F5F5F5F500DCC3000000C300F5F5F5F500DC00F5F5F5F500DC00F5F5F5F500C30000C3000000DC280000000000000000000000000000DCC3000000C3DC00000000000000000000000000002800DC000000C3000000C3000000DC280000000000000000000000000000DC00C3000000DC0000000000000000000000
310
00000000DC00000000C300000000C300000000DC0000000000000000000000000000DCC300000000DC000000000000000000000000000000DC00000000C300000000C300000000DC0000000000000000000000000000DCC3000000C3DC0000000000000000000000000000DC0000000000C3000000C3DC2828282828DC0028
310
28282828DC002828282800DCC3000000C3002828282800DC002828282800DC002828282800C30000C300DCDCDC28DCDCDCDCDCDCDCDCDCDCDCDCDCDCDCC3000000C3DCDCDCDCDCDCDCDCDCDCDCDCDCDCDC2800DCDC0000C3000000C30000DCDC28DCDCDCDCDCDCDCDCDCDCDCDCDCDCDC00C3000000DCDCDCDCDCDCDCDCDCDC
310
DCDCDCDCDCDCDC00000000C300000000C300000000DCDCDCDCDCDCDCDCDCDCDCDCDCDCDCDCC300000000DCDCDCDCDCDCDCDCDCDCDCDCDCDCDCDCDC00000000C300000000C300000000DCDCDCDCDCDCDCDCDCDCDCDCDCDCDCDCC3000000C3DCDCDCDCDCDCDCDCDCDCDCDCDCDCDCDC0000000000C3000000C3DC0000280000DC
310
000000280000DC000000280000DCC3000000C3000028280000DC000028280000DC000028280000C30000C30000DCDCDC000000000000000000000000000000C3000000C3000000000000000000000000000000DCDCDC000000C3000000C3000000DCDC00000000000000000000000000000000C3000000C300000000000000
310
00000000000000000000000000C300000000C30000000000000000000000000000000000000000C300000000C30000000000000000000000000000000000000000C300000000C30000000000000000000000000000000000000000C3000000C3000000000000000000000000000000000000000000C3000000C3DC00002800
310
00DC000000280000DC000000280000DCC3000000C3000028280000DC000028280000DC000028280000C30000C30000000000000000000000000000000000000000C3000000C3000000000000000000000000000000000000000000C3000000C3000000000000000000000000000000000000000000C3000000C30000000000
310
000000000000000000000000000000C300000000C30000000000000000000000000000000000000000C300000000C30000000000000000000000000000000000000000C300000000C30000000000000000000000000000000000000000C3000000C3000000000000000000000000000000000000000000C3000000C3DCDCDC
310
DCDCDCDCDCDCDCDCDCDCDCDCDCDCDCDCDCDCC3000000C3DCDCDCDCDCDCDCDCDCDCDCDCDCDCDCDCDCDCDCDCC30000C3C3C3C3C3C3C3C3C3C3C3C3C3C3C3C3C3C3C3C3C3C3000000C3C3C3C3C3C3C3C3C3C3C3C3C3C3C3C3C3C3C3C3C3C3C3000000C3C3C3C3C3C3C3C3C3C3C3C3C3C3C3C3C3C3C3C3C3C3C3000000C3C3C3C3
310
C3C3C3C3C3C3C3C3C3C3C3C3C3C3C3C3C3C300000000C3C3C3C3C3C3C3C3C3C3C3C3C3C3C3C3C3C3C3C3C3C300000000C3C3C3C3C3C3C3C3C3C3C3C3C3C3C3C3C3C3C3C3C3C300000000C3C3C3C3C3C3C3C3C3C3C3C3C3C3C3C3C3C3C3C3C3C3000000C3C3C3C3C3C3C3C3C3C3C3C3C3C3C3C3C3C3C3C3C3C3C3000000C3C3
310
C3C3C3C3C3C3C3C3C3C3C3C3C3C3C3C3C3C3C3C3C3000000C3C3C3C3C3C3C3C3C3C3C3C3C3C3C3C3C3C3C3C3C3C3000000000000000000000000000000000000000000000000000000000000000000000000000000000000000000000000000000000000000000000000000000000000000000000000000000000000000000
310
00000000000000000000000000000000000000000000000000000000000000000000000000000000000000000000000000000000000000000000000000000000000000000000000000000000000000000000000000000000000000000000000000000000000000000000000000000000000000000000000000000000000000
310
00000000000000000000000000000000000000000000000000000000000000000000000000000000000000000000000000000000000000000000000000000000000000000000000000000000000000000000000000000000000000000000000000000000000000000000000000000000000000000000000000000000000000
310
00000000000000000000000000000000000000000000000000000000000000000000000000000000000000000000000000000000000000000000000000000000000000000000000000000000000000000000000000000000000000000000000000000000000000000000000000000000000000000000000000000000000000
310
00000000000000000000000000000000000000000000000000000000000000000000000000000000000000000000000000000000000000000000000000000000000000000000000000000000000000000000000000000000000000000000000000000000000000000000000000000000000000000000000000000000000000
310
00000000000000000000000000000000000000000000000000000000000000000000000000000000000000000000000000000000000000000000000000000000000000000000000000000000000000000000000000000000000000000000000000000000000000000000000000000000000000000000000000000000000000
310
00000000000000000000000000000000000000000000000000000000000000000000000000000000000000000000000000000000000000000000000000000000000000000000000000000000000000000000000000000000000000000000000000000000000000000000000000000000000000000000000000000000000000
310
00000000000000000000000000000000000000000000000000000000000000000000000000000000000000000000000000000000000000000000000000000000000000000000000000000000000000000000000000000000000000000000000000000000000000000000000000000000000000000000000000000000000000
310
00000000000000000000000000000000000000000000000000000000000000000000000000000000000000000000000000000000000000000000000000000000000000000000000000000000000000000000000000000000000000000000000000000000000000000000000000000000000000000000000000000000000000
310
00000000000000000000000000000000000000000000000000000000000000000000000000000000000000000000000000000000000000000000000000000000000000000000000000000000000000000000000000000000000000000000000000000000000000000000000000000000000000000000000000000000000000
310
00000000000000000000000000000000000000000000000000000000000000000000000000000000000000000000000000000000000000000000000000000000000000000000000000000000000000000000000000000000000000000000000000000000000000000000000000000000000000000000000000000000000000
310
00000000000000000000000000000000000000000000000000000000000000000000000000000000000000000000000000000000000000000000000000000000000000000000000000000000000000000000000000000000000000000000000000000000000000000000000000000000000000000000000000000000000000
310
00000000000000000000000000000000000000000000000000000000000000000000000000000000000000000000000000000000000000000000000000000000000000000000000000000000000000000000000000000000000000000000000000000000000000000000000000000000000000000000000000000000000000
310
00000000000000000000000000000000000000000000000000000000000000000000000000000000000000000000000000000000000000000000000000000000000000000000000000000000000000000000000000000000000000000000000000000000000000000000000000000000000000000000000000000000000000
310
00000000000000000000000000000000000000000000000000000000000000000000000000000000000000000000000000000000000000000000000000000000000000000000000000000000000000000000000000000000000000000000000000000000000000000000000000000000000000000000000000000000000000
310
00000000000000000000000000000000000000000000000000000000000000000000000000000000000000000000000000000000000000000000000000000000000000000000000000000000000000000000000000000000000000000000000000000000000000000000000000000000000000000000000000000000000000
310
00000000000000000000000000000000000000000000000000000000000000000000000000000000000000000000000000000000000000000000000000000000000000000000000000000000000000000000000000000000000000000000000000000000000000000000000000000000000000000000000000000000000000
310
00000000000000000000000000000000000000000000000000000000000000000000000000000000000000000000000000000000000000000000000000000000000000000000000000000000000000000000000000000000000000000000000000000000000000000000000000000000000000000000000000000000000000
310
00000000000000000000000000000000000000000000000000000000000000000000000000000000000000000000000000000000000000000000000000000000000000000000000000000000000000000000000000000000000000000000000000000000000000000000000000000000000000000000000000000000000000
310
00000000000000000000000000000000000000000000000000000000000000000000000000000000000000000000000000000000000000000000000000000000000000000000000000000000000000000000000000000000000000000000000000000000000000000000000000000000000000000000000000000000000000
310
00000000000000000000000000000000000000000000000000000000000000000000000000000000000000000000000000000000000000000000000000000000000000000000000000000000000000000000000000000000000000000000000000000000000000000000000000000000000000000000000000000000000000
310
00000000000000000000000000000000000000000000000000000000000000000000000000000000000000000000000000000000000000000000000000000000000000000000000000000000000000000000000000000000000000000000000000000000000000000000000000000000000000000000000000000000000000
310
00000000000000000000000000000000000000000000000000000000000000000000000000000000000000000000000000000000000000000000000000000000000000000000000000000000000000000000000000000000000000000000000000000000000000000000000000000000000000000000000000000000000000
310
00000000000000000000000000000000000000000000000000000000000000000000000000000000000000000000000000000000000000000000000000000000000000000000000000000000000000000000000000000000000000000000000000000000000000000000000000000000000000000000000000000000000000
310
00000000000000000000000000000000000000000000000000000000000000000000000000000000000000000000000000000000000000000000000000000000000000000000000000000000000000000000000000000000000000000000000000000000000000000000000000000000000000000000000000000000000000
310
00000000000000000000000000000000000000000000000000000000000000000000000000000000000000000000000000000000000000000000000000000000000000000000000000000000000000000000000000000000000000000000000000000000000000000000000000000000000000000000000000000000000000
310
00000000000000000000000000000000000000000000000000000000000000000000000000000000000000000000000000000000000000000000000000000000000000000000000000000000000000000000000000000000000000000000000000000000000000000000000000000000000000000000000000000000000000
310
00000000000000000000000000000000000000000000000000000000000000000000000000000000000000000000000000000000000000000000000000000000000000000000000000000000000000000000000000000000000000000000000000000000000000000000000000000000000000000000000000000000000000
310
00000000000000000000000000000000000000000000000000000000000000000000000000000000000000000000000000000000000000000000000000000000000000000000000000000000000000000000000000000000000000000000000000000000000000000000000000000000000000000000000000000000000000
310
00000000000000000000000000000000000000000000000000000000000000000000000000000000000000000000000000000000000000000000000000000000000000000000000000000000000000000000000000000000000000000000000000000000000000000000000000000000000000000000000000000000000000
310
00000000000000000000000000000000000000000000000000000000000000000000000000000000000000000000000000000000000000000000000000000000000000000000000000000000000000000000000000000000000000000000000000000000000000000000000000000000000000000000000000000000000000
310
00000000000000000000000000000000000000000000000000000000000000000000000000000000000000000000000000000000000000000000000000000000000000000000000000000000000000000000000000000000000000000000000000000000000000000000000000000000000000000000000000000000000000
310
00000000000000000000000000000000000000000000000000000000000000000000000000000000000000000000000000000000000000000000000000000000000000000000000000000000000000000000000000000000000000000000000000000000000000000000000000000000000000000000000000000000000000
310
00000000000000000000000000000000000000000000000000000000000000000000000000000000000000000000000000000000000000000000000000000000000000000000000000000000000000000000000000000000000000000000000000000000000000000000000000000000000000000000000000000000000000
310
00000000000000000000000000000000000000000000000000000000000000000000000000000000000000000000000000000000000000000000000000000000000000000000000000000000000000000000000000000000000000000000000000000000000000000000000000000000000000000000000000000000000000
310
00000000000000000000000000000000000000000000000000000000000000000000000000000000000000000000000000000000000000000000000000000000000000000000000000000000000000000000000000000000000000000000000000000000000000000000000000000000000000000000000000000000000000
310
00000000000000000000000000000000000000000000000000000000000000000000000000000000000000000000000000000000000000000000000000000000000000000000000000000000000000000000000000000000000000000000000000000000000000000000000000000000000000000000000000000000000000
310
00000000000000000000000000000000000000000000000000000000000000000000000000000000000000000000000000000000000000000000000000000000000000000000000000000000000000000000000000000000000000000000000000000000000000000000000000000000000000000000000000000000000000
310
00000000000000000000000000000000000000000000000000000000000000000000000000000000000000000000000000000000000000000000000000000000000000000000000000000000000000000000000000000000000000000000000000000000000000000000000000000000000000000000000000000000000000
310
00000000000000000000000000000000000000000000000000000000000000000000000000000000000000000000000000000000000000000000000000000000000000000000000000000000000000000000000000000000000000000000000000000000000000000000000000000000000000000000000000000000000000
310
00000000000000000000000000000000000000000000000000000000000000000000000000000000000000000000000000000000000000000000000000000000000000000000000000000000000000000000000000000000000000000000000000000000000000000000000000000000000000000000000000000000000000
310
00000000000000000000000000000000000000000000000000000000000000000000000000000000000000000000000000000000000000000000000000000000000000000000000000000000000000000000000000000000000000000000000000000000000000000000000000000000000000000000000000000000000000
310
00000000000000000000000000000000000000000000000000000000000000000000000000000000000000000000000000000000000000000000000000000000000000000000000000000000000000000000000000000000000000000000000000000000000000000000000000000000000000000000000000000000000000
310
00000000000000000000000000000000000000000000000000000000000000000000000000000000000000000000000000000000000000000000000000000000000000000000000000000000000000000000000000000000000000000000000000000000000000000000000000000000000000000000000000000000000000
310
00000000000000000000000000000000000000000000000000000000000000000000000000000000000000000000000000000000000000000000000000000000000000000000000000000000000000000000000000000000000000000000000000000000000000000000000000000000000000000000000000000000000000
310
00000000000000000000000000000000000000000000000000000000000000000000000000000000000000000000000000000000000000000000000000000000000000000000000000000000000000000000000000000000000000000000000000000000000000000000000000000000000000000000000000000000000000
310
00000000000000000000000000000000000000000000000000000000000000000000000000000000000000000000000000000000000000000000000000000000000000000000000000000000000000000000000000000000000000000000000000000000000000000000000000000000000000000000000000000000000000
310
00000000000000000000000000000000000000000000000000000000000000000000000000000000000000000000000000000000000000000000000000000000000000000000000000000000000000000000000000000000000000000000000000000000000000000000000000000000000000000000000000000000000000
310
00000000000000000000000000000000000000000000000000000000000000000000000000000000000000000000000000000000000000000000000000000000000000000000000000000000000000000000000000000000000000000000000000000000000000000000000000000000000000000000000000000000000000
310
00000000000000000000000000000000000000000000000000000000000000000000000000000000000000000000000000000000000000000000000000000000000000000000000000000000000000000000000000000000000000000000000000000000000000000000000000000000000000000000000000000000000000
310
00000000000000000000000000000000000000000000000000000000000000000000000000000000000000000000000000000000000000000000000000000000000000000000000000000000000000000000000000000000000000000000000000000000000000000000000000000000000000000000000000000000000000
310
00000000000000000000000000000000000000000000000000000000000000000000000000000000000000000000000000000000000000000000000000000000000000000000000000000000000000000000000000000000000000000000000000000000000000000000000000000000000000000000000000000000000000
310
00000000000000000000000000000000000000000000000000000000000000000000000000000000000000000000000000000000000000000000000000000000000000000000000000000000000000000000000000000000000000000000000000000000000000000000000000000000000000000000000000000000000000
310
00000000000000000000000000000000000000000000000000000000000000000000000000000000000000000000000000000000000000000000000000000000000000000000000000000000000000000000000000000000000000000000000000000000000000000000000000000000000000000000000000000000000000
310
00000000000000000000000000000000000000000000000000000000000000000000000000000000000000000000000000000000000000000000000000000000000000000000000000000000000000000000000000000000000000000000000000000000000000000000000000000000000000000000000000000000000000
310
00000000000000000000000000000000000000000000000000000000000000000000000000000000000000000000000000000000000000000000000000000000000000000000000000000000000000000000000000000000000000000000000000000000000000000000000000000000000000000000000000000000000000
310
00000000000000000000000000000000000000000000000000000000000000000000000000000000000000000000000000000000000000000000000000000000000000000000000000000000000000000000000000000000000000000000000000000000000000000000000000000000000000000000000000000000000000
310
00000000000000000000000000000000000000000000000000000000000000000000000000000000000000000000000000000000000000000000000000000000000000000000000000000000000000000000000000000000000000000000000000000000000000000000000000000000000000000000000000000000000000
310
00000000000000000000000000000000000000000000000000000000000000000000000000000000000000000000000000000000000000000000000000000000000000000000000000000000000000000000000000000000000000000000000000000000000000000000000000000000000000000000000000000000000000
310
00000000000000000000000000000000000000000000000000000000000000000000000000000000000000000000000000000000000000000000000000000000000000000000000000000000000000000000000000000000000000000000000000000000000000000000000000000000000000000000000000000000000000
310
0000000000000000000000000000000000000000000000000000000000000000000000000000000000000000000000000000000000000000000000000000000000000000000000000000000000000000000000000000000000000000000000000000000000000000000000
  0
XRECORD
  5
1C
102
{ACAD_REACTORS
330
1A
102
}
330
1A
100
AcDbXrecord
280
     1
270
     1
271
     1
  0
XRECORD
  5
1B
102
{ACAD_REACTORS
330
1A
102
}
330
1A
100
AcDbXrecord
280
     1
270
     1
271
     1
  0
XRECORD
  5
1F
102
{ACAD_REACTORS
330
1A
102
}
330
1A
100
AcDbXrecord
280
     1
270
     1
271
     1
  0
XRECORD
  5
1E
102
{ACAD_REACTORS
330
1A
102
}
330
1A
100
AcDbXrecord
280
     1
270
     1
271
     1
  0
XRECORD
  5
20
102
{ACAD_REACTORS
330
1A
102
}
330
1A
100
AcDbXrecord
280
     1
270
     1
271
     1
  0
XRECORD
  5
1D
102
{ACAD_REACTORS
330
1A
102
}
330
1A
100
AcDbXrecord
280
     1
270
     1
271
     1
  0
XRECORD
  5
14
102
{ACAD_REACTORS
330
12
102
}
330
12
100
AcDbXrecord
280
     1
270
     1
271
     1
  0
XRECORD
  5
13
102
{ACAD_REACTORS
330
12
102
}
330
12
100
AcDbXrecord
280
     1
270
     1
271
     1
  0
XRECORD
  5
17
102
{ACAD_REACTORS
330
12
102
}
330
12
100
AcDbXrecord
280
     1
270
     1
271
     1
  0
XRECORD
  5
16
102
{ACAD_REACTORS
330
12
102
}
330
12
100
AcDbXrecord
280
     1
270
     1
271
     1
  0
XRECORD
  5
18
102
{ACAD_REACTORS
330
12
102
}
330
12
100
AcDbXrecord
280
     1
270
     1
271
     1
  0
XRECORD
  5
15
102
{ACAD_REACTORS
330
12
102
}
330
12
100
AcDbXrecord
280
     1
270
     1
271
     1
  0
XRECORD
  5
24
102
{ACAD_REACTORS
330
22
102
}
330
22
100
AcDbXrecord
280
     1
270
     1
271
     1
  0
XRECORD
  5
23
102
{ACAD_REACTORS
330
22
102
}
330
22
100
AcDbXrecord
280
     1
270
     1
271
     1
  0
XRECORD
  5
27
102
{ACAD_REACTORS
330
22
102
}
330
22
100
AcDbXrecord
280
     1
270
     1
271
     1
  0
XRECORD
  5
26
102
{ACAD_REACTORS
330
22
102
}
330
22
100
AcDbXrecord
280
     1
270
     1
271
     1
  0
XRECORD
  5
28
102
{ACAD_REACTORS
330
22
102
}
330
22
100
AcDbXrecord
280
     1
270
     1
271
     1
  0
XRECORD
  5
25
102
{ACAD_REACTORS
330
22
102
}
330
22
100
AcDbXrecord
280
     1
270
     1
271
     1
  0
XRECORD
  5
7BC
102
{ACAD_REACTORS
330
7BB
102
}
330
7BB
100
AcDbXrecord
280
     1
102
ACAD_ROUNDTRIP_2012_MLEADER_STYLE
298
     1
  0
XRECORD
  5
7BE
102
{ACAD_REACTORS
330
7BD
102
}
330
7BD
100
AcDbXrecord
280
     1
102
DISPLAYNAME
  1
Metric50
102
FLAGS
 90
        0
  0
CELLSTYLEMAP
  5
789
102
{ACAD_REACTORS
330
788
102
}
330
788
100
AcDbCellStyleMap
 90
        3
300
CELLSTYLE
  1
TABLEFORMAT_BEGIN
 90
        5
170
     1
 91
        0
 92
    32768
 62
   257
 93
        1
300
CONTENTFORMAT
  1
CONTENTFORMAT_BEGIN
 90
        0
 91
        0
 92
      512
 93
        0
300

 40
0.0
140
1.0
 94
        5
 62
     0
340
55
144
6.0
309
CONTENTFORMAT_END
171
     1
301
MARGIN
  1
CELLMARGIN_BEGIN
 40
1.5
 40
1.5
 40
1.5
 40
1.5
 40
4.5
 40
4.5
309
CELLMARGIN_END
 94
        6
 95
        1
302
GRIDFORMAT
  1
GRIDFORMAT_BEGIN
 90
        0
 91
        1
 62
     0
 92
       -2
340
0
 93
        0
 40
1.125
309
GRIDFORMAT_END
 95
        2
302
GRIDFORMAT
  1
GRIDFORMAT_BEGIN
 90
        0
 91
        1
 62
     0
 92
       -2
340
0
 93
        0
 40
1.125
309
GRIDFORMAT_END
 95
        4
302
GRIDFORMAT
  1
GRIDFORMAT_BEGIN
 90
        0
 91
        1
 62
     0
 92
       -2
340
0
 93
        0
 40
1.125
309
GRIDFORMAT_END
 95
        8
302
GRIDFORMAT
  1
GRIDFORMAT_BEGIN
 90
        0
 91
        1
 62
     0
 92
       -2
340
0
 93
        0
 40
1.125
309
GRIDFORMAT_END
 95
       16
302
GRIDFORMAT
  1
GRIDFORMAT_BEGIN
 90
        0
 91
        1
 62
     0
 92
       -2
340
0
 93
        0
 40
1.125
309
GRIDFORMAT_END
 95
       32
302
GRIDFORMAT
  1
GRIDFORMAT_BEGIN
 90
        0
 91
        1
 62
     0
 92
       -2
340
0
 93
        0
 40
1.125
309
GRIDFORMAT_END
309
TABLEFORMAT_END
  1
CELLSTYLE_BEGIN
 90
        1
 91
        1
300
_TITLE
309
CELLSTYLE_END
300
CELLSTYLE
  1
TABLEFORMAT_BEGIN
 90
        5
170
     1
 91
        0
 92
        0
 62
   257
 93
        1
300
CONTENTFORMAT
  1
CONTENTFORMAT_BEGIN
 90
        0
 91
        0
 92
      512
 93
        0
300

 40
0.0
140
1.0
 94
        5
 62
     0
340
55
144
4.5
309
CONTENTFORMAT_END
171
     1
301
MARGIN
  1
CELLMARGIN_BEGIN
 40
1.5
 40
1.5
 40
1.5
 40
1.5
 40
4.5
 40
4.5
309
CELLMARGIN_END
 94
        6
 95
        1
302
GRIDFORMAT
  1
GRIDFORMAT_BEGIN
 90
        0
 91
        1
 62
     0
 92
       -2
340
0
 93
        0
 40
1.125
309
GRIDFORMAT_END
 95
        2
302
GRIDFORMAT
  1
GRIDFORMAT_BEGIN
 90
        0
 91
        1
 62
     0
 92
       -2
340
0
 93
        0
 40
1.125
309
GRIDFORMAT_END
 95
        4
302
GRIDFORMAT
  1
GRIDFORMAT_BEGIN
 90
        0
 91
        1
 62
     0
 92
       -2
340
0
 93
        0
 40
1.125
309
GRIDFORMAT_END
 95
        8
302
GRIDFORMAT
  1
GRIDFORMAT_BEGIN
 90
        0
 91
        1
 62
     0
 92
       -2
340
0
 93
        0
 40
1.125
309
GRIDFORMAT_END
 95
       16
302
GRIDFORMAT
  1
GRIDFORMAT_BEGIN
 90
        0
 91
        1
 62
     0
 92
       -2
340
0
 93
        0
 40
1.125
309
GRIDFORMAT_END
 95
       32
302
GRIDFORMAT
  1
GRIDFORMAT_BEGIN
 90
        0
 91
        1
 62
     0
 92
       -2
340
0
 93
        0
 40
1.125
309
GRIDFORMAT_END
309
TABLEFORMAT_END
  1
CELLSTYLE_BEGIN
 90
        2
 91
        1
300
_HEADER
309
CELLSTYLE_END
300
CELLSTYLE
  1
TABLEFORMAT_BEGIN
 90
        5
170
     1
 91
        0
 92
        0
 62
   257
 93
        1
300
CONTENTFORMAT
  1
CONTENTFORMAT_BEGIN
 90
        0
 91
        0
 92
      512
 93
        0
300

 40
0.0
140
1.0
 94
        2
 62
     0
340
55
144
4.5
309
CONTENTFORMAT_END
171
     1
301
MARGIN
  1
CELLMARGIN_BEGIN
 40
1.5
 40
1.5
 40
1.5
 40
1.5
 40
4.5
 40
4.5
309
CELLMARGIN_END
 94
        6
 95
        1
302
GRIDFORMAT
  1
GRIDFORMAT_BEGIN
 90
        0
 91
        1
 62
     0
 92
       -2
340
0
 93
        0
 40
1.125
309
GRIDFORMAT_END
 95
        2
302
GRIDFORMAT
  1
GRIDFORMAT_BEGIN
 90
        0
 91
        1
 62
     0
 92
       -2
340
0
 93
        0
 40
1.125
309
GRIDFORMAT_END
 95
        4
302
GRIDFORMAT
  1
GRIDFORMAT_BEGIN
 90
        0
 91
        1
 62
     0
 92
       -2
340
0
 93
        0
 40
1.125
309
GRIDFORMAT_END
 95
        8
302
GRIDFORMAT
  1
GRIDFORMAT_BEGIN
 90
        0
 91
        1
 62
     0
 92
       -2
340
0
 93
        0
 40
1.125
309
GRIDFORMAT_END
 95
       16
302
GRIDFORMAT
  1
GRIDFORMAT_BEGIN
 90
        0
 91
        1
 62
     0
 92
       -2
340
0
 93
        0
 40
1.125
309
GRIDFORMAT_END
 95
       32
302
GRIDFORMAT
  1
GRIDFORMAT_BEGIN
 90
        0
 91
        1
 62
     0
 92
       -2
340
0
 93
        0
 40
1.125
309
GRIDFORMAT_END
309
TABLEFORMAT_END
  1
CELLSTYLE_BEGIN
 90
        3
 91
        2
300
_DATA
309
CELLSTYLE_END
  0
XRECORD
  5
796
102
{ACAD_REACTORS
330
795
102
}
330
795
100
AcDbXrecord
280
     1
102
RTVSPost2010Prop28
280
     1
102
RTVSPost2010PropOp28
 70
     1
102
RTVSPost2010Prop29
280
     1
102
RTVSPost2010PropOp29
 70
     1
102
RTVSPost2010Prop30
280
     0
102
RTVSPost2010PropOp30
 70
     1
102
RTVSPost2010Prop31
280
     0
102
RTVSPost2010PropOp31
 70
     1
102
RTVSPost2010Prop32
280
     0
102
RTVSPost2010PropOp32
 70
     1
102
RTVSPost2010Prop33
280
     0
102
RTVSPost2010PropOp33
 70
     1
102
RTVSPost2010Prop34
280
     0
102
RTVSPost2010PropOp34
 70
     1
102
RTVSPost2010Prop35
280
     0
102
RTVSPost2010PropOp35
 70
     1
102
RTVSPost2010Prop36
280
     0
102
RTVSPost2010PropOp36
 70
     1
102
RTVSPost2010Prop37
 90
       50
102
RTVSPost2010PropOp37
 70
     1
102
RTVSPost2010Prop38
140
0.0
102
RTVSPost2010PropOp38
 70
     1
102
RTVSPost2010Prop39
140
1.0
102
RTVSPost2010PropOp39
 70
     1
102
RTVSPost2010Prop40
 90
        0
102
RTVSPost2010PropOp40
 70
     1
102
RTVSPost2010Prop41ColorIndex
 90
       18
102
RTVSPost2010Prop41ColorRGB
 90
        0
102
RTVSPost2010PropOp41
 70
     1
102
RTVSPost2010Prop42
 90
       50
102
RTVSPost2010PropOp42
 70
     1
102
RTVSPost2010Prop43
 90
        3
102
RTVSPost2010PropOp43
 70
     1
102
RTVSPost2010Prop44ColorIndex
 90
        5
102
RTVSPost2010Prop44ColorRGB
 90
      255
102
RTVSPost2010PropOp44
 70
     1
102
RTVSPost2010Prop45
280
     0
102
RTVSPost2010PropOp45
 70
     1
102
RTVSPost2010Prop46
 90
       50
102
RTVSPost2010PropOp46
 70
     1
102
RTVSPost2010Prop47
 90
       50
102
RTVSPost2010PropOp47
 70
     1
102
RTVSPost2010Prop48
 90
       50
102
RTVSPost2010PropOp48
 70
     1
102
RTVSPost2010Prop49
280
     0
102
RTVSPost2010PropOp49
 70
     1
102
RTVSPost2010Prop50
 90
       50
102
RTVSPost2010PropOp50
 70
     1
102
RTVSPost2010Prop51ColorIndex
 90
      256
102
RTVSPost2010Prop51ColorRGB
 90
-16777216
102
RTVSPost2010PropOp51
 70
     0
102
RTVSPost2010Prop52
140
1.0
102
RTVSPost2010PropOp52
 70
     0
102
RTVSPost2010Prop53
 90
        2
102
RTVSPost2010PropOp53
 70
     1
102
RTVSPost2010Prop54
  1
strokes_ogs.tif
102
RTVSPost2010PropOp54
 70
     1
102
RTVSPost2010Prop55
280
     0
102
RTVSPost2010PropOp55
 70
     1
102
RTVSPost2010Prop56
140
1.0
102
RTVSPost2010PropOp56
 70
     1
102
RTVSPost2010Prop57
140
1.0
102
RTVSPost2010PropOp57
 70
     1
  0
XRECORD
  5
794
102
{ACAD_REACTORS
330
793
102
}
330
793
100
AcDbXrecord
280
     1
102
RTVSPost2010Prop28
280
     0
102
RTVSPost2010PropOp28
 70
     1
102
RTVSPost2010Prop29
280
     1
102
RTVSPost2010PropOp29
 70
     1
102
RTVSPost2010Prop30
280
     1
102
RTVSPost2010PropOp30
 70
     1
102
RTVSPost2010Prop31
280
     0
102
RTVSPost2010PropOp31
 70
     1
102
RTVSPost2010Prop32
280
     0
102
RTVSPost2010PropOp32
 70
     1
102
RTVSPost2010Prop33
280
     0
102
RTVSPost2010PropOp33
 70
     1
102
RTVSPost2010Prop34
280
     0
102
RTVSPost2010PropOp34
 70
     1
102
RTVSPost2010Prop35
280
     0
102
RTVSPost2010PropOp35
 70
     1
102
RTVSPost2010Prop36
280
     0
102
RTVSPost2010PropOp36
 70
     1
102
RTVSPost2010Prop37
 90
       50
102
RTVSPost2010PropOp37
 70
     1
102
RTVSPost2010Prop38
140
0.0
102
RTVSPost2010PropOp38
 70
     1
102
RTVSPost2010Prop39
140
1.0
102
RTVSPost2010PropOp39
 70
     1
102
RTVSPost2010Prop40
 90
        0
102
RTVSPost2010PropOp40
 70
     1
102
RTVSPost2010Prop41ColorIndex
 90
       18
102
RTVSPost2010Prop41ColorRGB
 90
        0
102
RTVSPost2010PropOp41
 70
     1
102
RTVSPost2010Prop42
 90
       50
102
RTVSPost2010PropOp42
 70
     1
102
RTVSPost2010Prop43
 90
        3
102
RTVSPost2010PropOp43
 70
     1
102
RTVSPost2010Prop44ColorIndex
 90
        5
102
RTVSPost2010Prop44ColorRGB
 90
      255
102
RTVSPost2010PropOp44
 70
     1
102
RTVSPost2010Prop45
280
     0
102
RTVSPost2010PropOp45
 70
     1
102
RTVSPost2010Prop46
 90
       50
102
RTVSPost2010PropOp46
 70
     1
102
RTVSPost2010Prop47
 90
       50
102
RTVSPost2010PropOp47
 70
     1
102
RTVSPost2010Prop48
 90
       50
102
RTVSPost2010PropOp48
 70
     1
102
RTVSPost2010Prop49
280
     0
102
RTVSPost2010PropOp49
 70
     1
102
RTVSPost2010Prop50
 90
       50
102
RTVSPost2010PropOp50
 70
     1
102
RTVSPost2010Prop51ColorIndex
 90
      256
102
RTVSPost2010Prop51ColorRGB
 90
-16777216
102
RTVSPost2010PropOp51
 70
     0
102
RTVSPost2010Prop52
140
1.0
102
RTVSPost2010PropOp52
 70
     0
102
RTVSPost2010Prop53
 90
        2
102
RTVSPost2010PropOp53
 70
     1
102
RTVSPost2010Prop54
  1
strokes_ogs.tif
102
RTVSPost2010PropOp54
 70
     1
102
RTVSPost2010Prop55
280
     0
102
RTVSPost2010PropOp55
 70
     1
102
RTVSPost2010Prop56
140
1.0
102
RTVSPost2010PropOp56
 70
     1
102
RTVSPost2010Prop57
140
1.0
102
RTVSPost2010PropOp57
 70
     1
  0
XRECORD
  5
7A2
102
{ACAD_REACTORS
330
7A1
102
}
330
7A1
100
AcDbXrecord
280
     1
102
RTVSPost2010Prop28
280
     0
102
RTVSPost2010PropOp28
 70
     1
102
RTVSPost2010Prop29
280
     1
102
RTVSPost2010PropOp29
 70
     1
102
RTVSPost2010Prop30
280
     1
102
RTVSPost2010PropOp30
 70
     1
102
RTVSPost2010Prop31
280
     0
102
RTVSPost2010PropOp31
 70
     1
102
RTVSPost2010Prop32
280
     0
102
RTVSPost2010PropOp32
 70
     1
102
RTVSPost2010Prop33
280
     0
102
RTVSPost2010PropOp33
 70
     1
102
RTVSPost2010Prop34
280
     0
102
RTVSPost2010PropOp34
 70
     1
102
RTVSPost2010Prop35
280
     0
102
RTVSPost2010PropOp35
 70
     1
102
RTVSPost2010Prop36
280
     0
102
RTVSPost2010PropOp36
 70
     1
102
RTVSPost2010Prop37
 90
       50
102
RTVSPost2010PropOp37
 70
     1
102
RTVSPost2010Prop38
140
0.0
102
RTVSPost2010PropOp38
 70
     1
102
RTVSPost2010Prop39
140
1.0
102
RTVSPost2010PropOp39
 70
     1
102
RTVSPost2010Prop40
 90
        0
102
RTVSPost2010PropOp40
 70
     1
102
RTVSPost2010Prop41ColorIndex
 90
       18
102
RTVSPost2010Prop41ColorRGB
 90
        0
102
RTVSPost2010PropOp41
 70
     1
102
RTVSPost2010Prop42
 90
       50
102
RTVSPost2010PropOp42
 70
     1
102
RTVSPost2010Prop43
 90
        3
102
RTVSPost2010PropOp43
 70
     1
102
RTVSPost2010Prop44ColorIndex
 90
        5
102
RTVSPost2010Prop44ColorRGB
 90
      255
102
RTVSPost2010PropOp44
 70
     1
102
RTVSPost2010Prop45
280
     0
102
RTVSPost2010PropOp45
 70
     1
102
RTVSPost2010Prop46
 90
       50
102
RTVSPost2010PropOp46
 70
     1
102
RTVSPost2010Prop47
 90
       50
102
RTVSPost2010PropOp47
 70
     1
102
RTVSPost2010Prop48
 90
       50
102
RTVSPost2010PropOp48
 70
     1
102
RTVSPost2010Prop49
280
     0
102
RTVSPost2010PropOp49
 70
     1
102
RTVSPost2010Prop50
 90
       50
102
RTVSPost2010PropOp50
 70
     1
102
RTVSPost2010Prop51ColorIndex
 90
      256
102
RTVSPost2010Prop51ColorRGB
 90
-16777216
102
RTVSPost2010PropOp51
 70
     0
102
RTVSPost2010Prop52
140
1.0
102
RTVSPost2010PropOp52
 70
     0
102
RTVSPost2010Prop53
 90
        2
102
RTVSPost2010PropOp53
 70
     1
102
RTVSPost2010Prop54
  1
strokes_ogs.tif
102
RTVSPost2010PropOp54
 70
     1
102
RTVSPost2010Prop55
280
     0
102
RTVSPost2010PropOp55
 70
     1
102
RTVSPost2010Prop56
140
1.0
102
RTVSPost2010PropOp56
 70
     1
102
RTVSPost2010Prop57
140
1.0
102
RTVSPost2010PropOp57
 70
     1
  0
XRECORD
  5
7AA
102
{ACAD_REACTORS
330
7A9
102
}
330
7A9
100
AcDbXrecord
280
     1
102
RTVSPost2010Prop28
280
     0
102
RTVSPost2010PropOp28
 70
     1
102
RTVSPost2010Prop29
280
     1
102
RTVSPost2010PropOp29
 70
     1
102
RTVSPost2010Prop30
280
     1
102
RTVSPost2010PropOp30
 70
     1
102
RTVSPost2010Prop31
280
     0
102
RTVSPost2010PropOp31
 70
     1
102
RTVSPost2010Prop32
280
     0
102
RTVSPost2010PropOp32
 70
     1
102
RTVSPost2010Prop33
280
     0
102
RTVSPost2010PropOp33
 70
     1
102
RTVSPost2010Prop34
280
     0
102
RTVSPost2010PropOp34
 70
     1
102
RTVSPost2010Prop35
280
     0
102
RTVSPost2010PropOp35
 70
     1
102
RTVSPost2010Prop36
280
     0
102
RTVSPost2010PropOp36
 70
     1
102
RTVSPost2010Prop37
 90
       50
102
RTVSPost2010PropOp37
 70
     1
102
RTVSPost2010Prop38
140
0.0
102
RTVSPost2010PropOp38
 70
     1
102
RTVSPost2010Prop39
140
1.0
102
RTVSPost2010PropOp39
 70
     1
102
RTVSPost2010Prop40
 90
        0
102
RTVSPost2010PropOp40
 70
     1
102
RTVSPost2010Prop41ColorIndex
 90
       18
102
RTVSPost2010Prop41ColorRGB
 90
        0
102
RTVSPost2010PropOp41
 70
     1
102
RTVSPost2010Prop42
 90
       50
102
RTVSPost2010PropOp42
 70
     1
102
RTVSPost2010Prop43
 90
        3
102
RTVSPost2010PropOp43
 70
     1
102
RTVSPost2010Prop44ColorIndex
 90
        5
102
RTVSPost2010Prop44ColorRGB
 90
      255
102
RTVSPost2010PropOp44
 70
     1
102
RTVSPost2010Prop45
280
     0
102
RTVSPost2010PropOp45
 70
     1
102
RTVSPost2010Prop46
 90
       50
102
RTVSPost2010PropOp46
 70
     1
102
RTVSPost2010Prop47
 90
       50
102
RTVSPost2010PropOp47
 70
     1
102
RTVSPost2010Prop48
 90
       50
102
RTVSPost2010PropOp48
 70
     1
102
RTVSPost2010Prop49
280
     0
102
RTVSPost2010PropOp49
 70
     1
102
RTVSPost2010Prop50
 90
       50
102
RTVSPost2010PropOp50
 70
     1
102
RTVSPost2010Prop51ColorIndex
 90
      256
102
RTVSPost2010Prop51ColorRGB
 90
-16777216
102
RTVSPost2010PropOp51
 70
     0
102
RTVSPost2010Prop52
140
1.0
102
RTVSPost2010PropOp52
 70
     0
102
RTVSPost2010Prop53
 90
        2
102
RTVSPost2010PropOp53
 70
     1
102
RTVSPost2010Prop54
  1
strokes_ogs.tif
102
RTVSPost2010PropOp54
 70
     1
102
RTVSPost2010Prop55
280
     0
102
RTVSPost2010PropOp55
 70
     1
102
RTVSPost2010Prop56
140
1.0
102
RTVSPost2010PropOp56
 70
     1
102
RTVSPost2010Prop57
140
1.0
102
RTVSPost2010PropOp57
 70
     1
  0
XRECORD
  5
79C
102
{ACAD_REACTORS
330
79B
102
}
330
79B
100
AcDbXrecord
280
     1
102
RTVSPost2010Prop28
280
     0
102
RTVSPost2010PropOp28
 70
     1
102
RTVSPost2010Prop29
280
     1
102
RTVSPost2010PropOp29
 70
     1
102
RTVSPost2010Prop30
280
     1
102
RTVSPost2010PropOp30
 70
     1
102
RTVSPost2010Prop31
280
     0
102
RTVSPost2010PropOp31
 70
     1
102
RTVSPost2010Prop32
280
     0
102
RTVSPost2010PropOp32
 70
     1
102
RTVSPost2010Prop33
280
     0
102
RTVSPost2010PropOp33
 70
     1
102
RTVSPost2010Prop34
280
     0
102
RTVSPost2010PropOp34
 70
     1
102
RTVSPost2010Prop35
280
     0
102
RTVSPost2010PropOp35
 70
     1
102
RTVSPost2010Prop36
280
     0
102
RTVSPost2010PropOp36
 70
     1
102
RTVSPost2010Prop37
 90
       50
102
RTVSPost2010PropOp37
 70
     1
102
RTVSPost2010Prop38
140
0.0
102
RTVSPost2010PropOp38
 70
     1
102
RTVSPost2010Prop39
140
1.0
102
RTVSPost2010PropOp39
 70
     1
102
RTVSPost2010Prop40
 90
        0
102
RTVSPost2010PropOp40
 70
     1
102
RTVSPost2010Prop41ColorIndex
 90
       18
102
RTVSPost2010Prop41ColorRGB
 90
        0
102
RTVSPost2010PropOp41
 70
     1
102
RTVSPost2010Prop42
 90
       50
102
RTVSPost2010PropOp42
 70
     1
102
RTVSPost2010Prop43
 90
        3
102
RTVSPost2010PropOp43
 70
     1
102
RTVSPost2010Prop44ColorIndex
 90
        5
102
RTVSPost2010Prop44ColorRGB
 90
      255
102
RTVSPost2010PropOp44
 70
     1
102
RTVSPost2010Prop45
280
     0
102
RTVSPost2010PropOp45
 70
     1
102
RTVSPost2010Prop46
 90
       50
102
RTVSPost2010PropOp46
 70
     1
102
RTVSPost2010Prop47
 90
       50
102
RTVSPost2010PropOp47
 70
     1
102
RTVSPost2010Prop48
 90
       50
102
RTVSPost2010PropOp48
 70
     1
102
RTVSPost2010Prop49
280
     0
102
RTVSPost2010PropOp49
 70
     1
102
RTVSPost2010Prop50
 90
       50
102
RTVSPost2010PropOp50
 70
     1
102
RTVSPost2010Prop51ColorIndex
 90
      256
102
RTVSPost2010Prop51ColorRGB
 90
-16777216
102
RTVSPost2010PropOp51
 70
     0
102
RTVSPost2010Prop52
140
1.0
102
RTVSPost2010PropOp52
 70
     0
102
RTVSPost2010Prop53
 90
        2
102
RTVSPost2010PropOp53
 70
     1
102
RTVSPost2010Prop54
  1
strokes_ogs.tif
102
RTVSPost2010PropOp54
 70
     1
102
RTVSPost2010Prop55
280
     0
102
RTVSPost2010PropOp55
 70
     1
102
RTVSPost2010Prop56
140
1.0
102
RTVSPost2010PropOp56
 70
     1
102
RTVSPost2010Prop57
140
1.0
102
RTVSPost2010PropOp57
 70
     1
  0
XRECORD
  5
7A0
102
{ACAD_REACTORS
330
79F
102
}
330
79F
100
AcDbXrecord
280
     1
102
RTVSPost2010Prop28
280
     0
102
RTVSPost2010PropOp28
 70
     1
102
RTVSPost2010Prop29
280
     1
102
RTVSPost2010PropOp29
 70
     1
102
RTVSPost2010Prop30
280
     1
102
RTVSPost2010PropOp30
 70
     1
102
RTVSPost2010Prop31
280
     0
102
RTVSPost2010PropOp31
 70
     1
102
RTVSPost2010Prop32
280
     0
102
RTVSPost2010PropOp32
 70
     1
102
RTVSPost2010Prop33
280
     0
102
RTVSPost2010PropOp33
 70
     1
102
RTVSPost2010Prop34
280
     0
102
RTVSPost2010PropOp34
 70
     1
102
RTVSPost2010Prop35
280
     0
102
RTVSPost2010PropOp35
 70
     1
102
RTVSPost2010Prop36
280
     0
102
RTVSPost2010PropOp36
 70
     1
102
RTVSPost2010Prop37
 90
       50
102
RTVSPost2010PropOp37
 70
     1
102
RTVSPost2010Prop38
140
0.0
102
RTVSPost2010PropOp38
 70
     1
102
RTVSPost2010Prop39
140
1.0
102
RTVSPost2010PropOp39
 70
     1
102
RTVSPost2010Prop40
 90
        0
102
RTVSPost2010PropOp40
 70
     1
102
RTVSPost2010Prop41ColorIndex
 90
       18
102
RTVSPost2010Prop41ColorRGB
 90
        0
102
RTVSPost2010PropOp41
 70
     1
102
RTVSPost2010Prop42
 90
       50
102
RTVSPost2010PropOp42
 70
     1
102
RTVSPost2010Prop43
 90
        3
102
RTVSPost2010PropOp43
 70
     1
102
RTVSPost2010Prop44ColorIndex
 90
        5
102
RTVSPost2010Prop44ColorRGB
 90
      255
102
RTVSPost2010PropOp44
 70
     1
102
RTVSPost2010Prop45
280
     0
102
RTVSPost2010PropOp45
 70
     1
102
RTVSPost2010Prop46
 90
       50
102
RTVSPost2010PropOp46
 70
     1
102
RTVSPost2010Prop47
 90
       50
102
RTVSPost2010PropOp47
 70
     1
102
RTVSPost2010Prop48
 90
       50
102
RTVSPost2010PropOp48
 70
     1
102
RTVSPost2010Prop49
280
     0
102
RTVSPost2010PropOp49
 70
     1
102
RTVSPost2010Prop50
 90
       50
102
RTVSPost2010PropOp50
 70
     1
102
RTVSPost2010Prop51ColorIndex
 90
      256
102
RTVSPost2010Prop51ColorRGB
 90
-16777216
102
RTVSPost2010PropOp51
 70
     0
102
RTVSPost2010Prop52
140
1.0
102
RTVSPost2010PropOp52
 70
     0
102
RTVSPost2010Prop53
 90
        2
102
RTVSPost2010PropOp53
 70
     1
102
RTVSPost2010Prop54
  1
strokes_ogs.tif
102
RTVSPost2010PropOp54
 70
     1
102
RTVSPost2010Prop55
280
     0
102
RTVSPost2010PropOp55
 70
     1
102
RTVSPost2010Prop56
140
1.0
102
RTVSPost2010PropOp56
 70
     1
102
RTVSPost2010Prop57
140
1.0
102
RTVSPost2010PropOp57
 70
     1
  0
XRECORD
  5
7BA
102
{ACAD_REACTORS
330
7B9
102
}
330
7B9
100
AcDbXrecord
280
     1
102
RTVSPost2010Prop28
280
     0
102
RTVSPost2010PropOp28
 70
     0
102
RTVSPost2010Prop29
280
     1
102
RTVSPost2010PropOp29
 70
     0
102
RTVSPost2010Prop30
280
     1
102
RTVSPost2010PropOp30
 70
     0
102
RTVSPost2010Prop31
280
     0
102
RTVSPost2010PropOp31
 70
     0
102
RTVSPost2010Prop32
280
     0
102
RTVSPost2010PropOp32
 70
     0
102
RTVSPost2010Prop33
280
     0
102
RTVSPost2010PropOp33
 70
     0
102
RTVSPost2010Prop34
280
     0
102
RTVSPost2010PropOp34
 70
     0
102
RTVSPost2010Prop35
280
     0
102
RTVSPost2010PropOp35
 70
     0
102
RTVSPost2010Prop36
280
     0
102
RTVSPost2010PropOp36
 70
     0
102
RTVSPost2010Prop37
 90
       50
102
RTVSPost2010PropOp37
 70
     0
102
RTVSPost2010Prop38
140
0.0
102
RTVSPost2010PropOp38
 70
     0
102
RTVSPost2010Prop39
140
1.0
102
RTVSPost2010PropOp39
 70
     0
102
RTVSPost2010Prop40
 90
        0
102
RTVSPost2010PropOp40
 70
     0
102
RTVSPost2010Prop41ColorIndex
 90
       18
102
RTVSPost2010Prop41ColorRGB
 90
        0
102
RTVSPost2010PropOp41
 70
     0
102
RTVSPost2010Prop42
 90
       50
102
RTVSPost2010PropOp42
 70
     0
102
RTVSPost2010Prop43
 90
        3
102
RTVSPost2010PropOp43
 70
     0
102
RTVSPost2010Prop44ColorIndex
 90
        5
102
RTVSPost2010Prop44ColorRGB
 90
      255
102
RTVSPost2010PropOp44
 70
     0
102
RTVSPost2010Prop45
280
     0
102
RTVSPost2010PropOp45
 70
     0
102
RTVSPost2010Prop46
 90
       50
102
RTVSPost2010PropOp46
 70
     0
102
RTVSPost2010Prop47
 90
       50
102
RTVSPost2010PropOp47
 70
     0
102
RTVSPost2010Prop48
 90
       50
102
RTVSPost2010PropOp48
 70
     0
102
RTVSPost2010Prop49
280
     0
102
RTVSPost2010PropOp49
 70
     0
102
RTVSPost2010Prop50
 90
       50
102
RTVSPost2010PropOp50
 70
     0
102
RTVSPost2010Prop51ColorIndex
 90
      256
102
RTVSPost2010Prop51ColorRGB
 90
-16777216
102
RTVSPost2010PropOp51
 70
     0
102
RTVSPost2010Prop52
140
1.0
102
RTVSPost2010PropOp52
 70
     0
102
RTVSPost2010Prop53
 90
        2
102
RTVSPost2010PropOp53
 70
     0
102
RTVSPost2010Prop54
  1
strokes_ogs.tif
102
RTVSPost2010PropOp54
 70
     0
102
RTVSPost2010Prop55
280
     0
102
RTVSPost2010PropOp55
 70
     0
102
RTVSPost2010Prop56
140
1.0
102
RTVSPost2010PropOp56
 70
     0
102
RTVSPost2010Prop57
140
1.0
102
RTVSPost2010PropOp57
 70
     0
  0
XRECORD
  5
7A8
102
{ACAD_REACTORS
330
7A7
102
}
330
7A7
100
AcDbXrecord
280
     1
102
RTVSPost2010Prop28
280
     0
102
RTVSPost2010PropOp28
 70
     1
102
RTVSPost2010Prop29
280
     1
102
RTVSPost2010PropOp29
 70
     1
102
RTVSPost2010Prop30
280
     1
102
RTVSPost2010PropOp30
 70
     1
102
RTVSPost2010Prop31
280
     0
102
RTVSPost2010PropOp31
 70
     1
102
RTVSPost2010Prop32
280
     0
102
RTVSPost2010PropOp32
 70
     1
102
RTVSPost2010Prop33
280
     0
102
RTVSPost2010PropOp33
 70
     1
102
RTVSPost2010Prop34
280
     0
102
RTVSPost2010PropOp34
 70
     1
102
RTVSPost2010Prop35
280
     0
102
RTVSPost2010PropOp35
 70
     1
102
RTVSPost2010Prop36
280
     0
102
RTVSPost2010PropOp36
 70
     1
102
RTVSPost2010Prop37
 90
       50
102
RTVSPost2010PropOp37
 70
     1
102
RTVSPost2010Prop38
140
0.0
102
RTVSPost2010PropOp38
 70
     1
102
RTVSPost2010Prop39
140
1.0
102
RTVSPost2010PropOp39
 70
     1
102
RTVSPost2010Prop40
 90
        0
102
RTVSPost2010PropOp40
 70
     1
102
RTVSPost2010Prop41ColorIndex
 90
       18
102
RTVSPost2010Prop41ColorRGB
 90
        0
102
RTVSPost2010PropOp41
 70
     1
102
RTVSPost2010Prop42
 90
       50
102
RTVSPost2010PropOp42
 70
     1
102
RTVSPost2010Prop43
 90
        3
102
RTVSPost2010PropOp43
 70
     1
102
RTVSPost2010Prop44ColorIndex
 90
        5
102
RTVSPost2010Prop44ColorRGB
 90
      255
102
RTVSPost2010PropOp44
 70
     1
102
RTVSPost2010Prop45
280
     0
102
RTVSPost2010PropOp45
 70
     1
102
RTVSPost2010Prop46
 90
       50
102
RTVSPost2010PropOp46
 70
     1
102
RTVSPost2010Prop47
 90
       50
102
RTVSPost2010PropOp47
 70
     1
102
RTVSPost2010Prop48
 90
       50
102
RTVSPost2010PropOp48
 70
     1
102
RTVSPost2010Prop49
280
     0
102
RTVSPost2010PropOp49
 70
     1
102
RTVSPost2010Prop50
 90
       50
102
RTVSPost2010PropOp50
 70
     1
102
RTVSPost2010Prop51ColorIndex
 90
      256
102
RTVSPost2010Prop51ColorRGB
 90
-16777216
102
RTVSPost2010PropOp51
 70
     0
102
RTVSPost2010Prop52
140
1.0
102
RTVSPost2010PropOp52
 70
     0
102
RTVSPost2010Prop53
 90
        2
102
RTVSPost2010PropOp53
 70
     1
102
RTVSPost2010Prop54
  1
strokes_ogs.tif
102
RTVSPost2010PropOp54
 70
     1
102
RTVSPost2010Prop55
280
     0
102
RTVSPost2010PropOp55
 70
     1
102
RTVSPost2010Prop56
140
1.0
102
RTVSPost2010PropOp56
 70
     1
102
RTVSPost2010Prop57
140
1.0
102
RTVSPost2010PropOp57
 70
     1
  0
XRECORD
  5
78C
102
{ACAD_REACTORS
330
78B
102
}
330
78B
100
AcDbXrecord
280
     1
102
RTVSPost2010Prop28
280
     0
102
RTVSPost2010PropOp28
 70
     1
102
RTVSPost2010Prop29
280
     1
102
RTVSPost2010PropOp29
 70
     1
102
RTVSPost2010Prop30
280
     1
102
RTVSPost2010PropOp30
 70
     1
102
RTVSPost2010Prop31
280
     0
102
RTVSPost2010PropOp31
 70
     1
102
RTVSPost2010Prop32
280
     0
102
RTVSPost2010PropOp32
 70
     1
102
RTVSPost2010Prop33
280
     0
102
RTVSPost2010PropOp33
 70
     1
102
RTVSPost2010Prop34
280
     0
102
RTVSPost2010PropOp34
 70
     1
102
RTVSPost2010Prop35
280
     0
102
RTVSPost2010PropOp35
 70
     1
102
RTVSPost2010Prop36
280
     0
102
RTVSPost2010PropOp36
 70
     1
102
RTVSPost2010Prop37
 90
       50
102
RTVSPost2010PropOp37
 70
     1
102
RTVSPost2010Prop38
140
0.0
102
RTVSPost2010PropOp38
 70
     1
102
RTVSPost2010Prop39
140
1.0
102
RTVSPost2010PropOp39
 70
     1
102
RTVSPost2010Prop40
 90
        0
102
RTVSPost2010PropOp40
 70
     1
102
RTVSPost2010Prop41ColorIndex
 90
       18
102
RTVSPost2010Prop41ColorRGB
 90
        0
102
RTVSPost2010PropOp41
 70
     1
102
RTVSPost2010Prop42
 90
       50
102
RTVSPost2010PropOp42
 70
     1
102
RTVSPost2010Prop43
 90
        3
102
RTVSPost2010PropOp43
 70
     1
102
RTVSPost2010Prop44ColorIndex
 90
        5
102
RTVSPost2010Prop44ColorRGB
 90
      255
102
RTVSPost2010PropOp44
 70
     1
102
RTVSPost2010Prop45
280
     0
102
RTVSPost2010PropOp45
 70
     1
102
RTVSPost2010Prop46
 90
       50
102
RTVSPost2010PropOp46
 70
     1
102
RTVSPost2010Prop47
 90
       50
102
RTVSPost2010PropOp47
 70
     1
102
RTVSPost2010Prop48
 90
       50
102
RTVSPost2010PropOp48
 70
     1
102
RTVSPost2010Prop49
280
     0
102
RTVSPost2010PropOp49
 70
     1
102
RTVSPost2010Prop50
 90
       50
102
RTVSPost2010PropOp50
 70
     1
102
RTVSPost2010Prop51ColorIndex
 90
      256
102
RTVSPost2010Prop51ColorRGB
 90
-16777216
102
RTVSPost2010PropOp51
 70
     0
102
RTVSPost2010Prop52
140
1.0
102
RTVSPost2010PropOp52
 70
     0
102
RTVSPost2010Prop53
 90
        2
102
RTVSPost2010PropOp53
 70
     1
102
RTVSPost2010Prop54
  1
strokes_ogs.tif
102
RTVSPost2010PropOp54
 70
     1
102
RTVSPost2010Prop55
280
     0
102
RTVSPost2010PropOp55
 70
     1
102
RTVSPost2010Prop56
140
1.0
102
RTVSPost2010PropOp56
 70
     1
102
RTVSPost2010Prop57
140
1.0
102
RTVSPost2010PropOp57
 70
     1
  0
XRECORD
  5
78E
102
{ACAD_REACTORS
330
78D
102
}
330
78D
100
AcDbXrecord
280
     1
102
RTVSPost2010Prop28
280
     0
102
RTVSPost2010PropOp28
 70
     1
102
RTVSPost2010Prop29
280
     1
102
RTVSPost2010PropOp29
 70
     1
102
RTVSPost2010Prop30
280
     1
102
RTVSPost2010PropOp30
 70
     1
102
RTVSPost2010Prop31
280
     0
102
RTVSPost2010PropOp31
 70
     1
102
RTVSPost2010Prop32
280
     0
102
RTVSPost2010PropOp32
 70
     1
102
RTVSPost2010Prop33
280
     0
102
RTVSPost2010PropOp33
 70
     1
102
RTVSPost2010Prop34
280
     0
102
RTVSPost2010PropOp34
 70
     1
102
RTVSPost2010Prop35
280
     0
102
RTVSPost2010PropOp35
 70
     1
102
RTVSPost2010Prop36
280
     0
102
RTVSPost2010PropOp36
 70
     1
102
RTVSPost2010Prop37
 90
       50
102
RTVSPost2010PropOp37
 70
     1
102
RTVSPost2010Prop38
140
0.0
102
RTVSPost2010PropOp38
 70
     1
102
RTVSPost2010Prop39
140
1.0
102
RTVSPost2010PropOp39
 70
     1
102
RTVSPost2010Prop40
 90
        0
102
RTVSPost2010PropOp40
 70
     1
102
RTVSPost2010Prop41ColorIndex
 90
       18
102
RTVSPost2010Prop41ColorRGB
 90
        0
102
RTVSPost2010PropOp41
 70
     1
102
RTVSPost2010Prop42
 90
       50
102
RTVSPost2010PropOp42
 70
     1
102
RTVSPost2010Prop43
 90
        3
102
RTVSPost2010PropOp43
 70
     1
102
RTVSPost2010Prop44ColorIndex
 90
        5
102
RTVSPost2010Prop44ColorRGB
 90
      255
102
RTVSPost2010PropOp44
 70
     1
102
RTVSPost2010Prop45
280
     0
102
RTVSPost2010PropOp45
 70
     1
102
RTVSPost2010Prop46
 90
       50
102
RTVSPost2010PropOp46
 70
     1
102
RTVSPost2010Prop47
 90
       50
102
RTVSPost2010PropOp47
 70
     1
102
RTVSPost2010Prop48
 90
       50
102
RTVSPost2010PropOp48
 70
     1
102
RTVSPost2010Prop49
280
     0
102
RTVSPost2010PropOp49
 70
     1
102
RTVSPost2010Prop50
 90
       50
102
RTVSPost2010PropOp50
 70
     1
102
RTVSPost2010Prop51ColorIndex
 90
      256
102
RTVSPost2010Prop51ColorRGB
 90
-16777216
102
RTVSPost2010PropOp51
 70
     0
102
RTVSPost2010Prop52
140
1.0
102
RTVSPost2010PropOp52
 70
     0
102
RTVSPost2010Prop53
 90
        2
102
RTVSPost2010PropOp53
 70
     1
102
RTVSPost2010Prop54
  1
strokes_ogs.tif
102
RTVSPost2010PropOp54
 70
     1
102
RTVSPost2010Prop55
280
     0
102
RTVSPost2010PropOp55
 70
     1
102
RTVSPost2010Prop56
140
1.0
102
RTVSPost2010PropOp56
 70
     1
102
RTVSPost2010Prop57
140
1.0
102
RTVSPost2010PropOp57
 70
     1
  0
XRECORD
  5
790
102
{ACAD_REACTORS
330
78F
102
}
330
78F
100
AcDbXrecord
280
     1
102
RTVSPost2010Prop28
280
     0
102
RTVSPost2010PropOp28
 70
     1
102
RTVSPost2010Prop29
280
     1
102
RTVSPost2010PropOp29
 70
     1
102
RTVSPost2010Prop30
280
     1
102
RTVSPost2010PropOp30
 70
     1
102
RTVSPost2010Prop31
280
     0
102
RTVSPost2010PropOp31
 70
     1
102
RTVSPost2010Prop32
280
     0
102
RTVSPost2010PropOp32
 70
     1
102
RTVSPost2010Prop33
280
     0
102
RTVSPost2010PropOp33
 70
     1
102
RTVSPost2010Prop34
280
     0
102
RTVSPost2010PropOp34
 70
     1
102
RTVSPost2010Prop35
280
     0
102
RTVSPost2010PropOp35
 70
     1
102
RTVSPost2010Prop36
280
     0
102
RTVSPost2010PropOp36
 70
     1
102
RTVSPost2010Prop37
 90
       50
102
RTVSPost2010PropOp37
 70
     1
102
RTVSPost2010Prop38
140
0.0
102
RTVSPost2010PropOp38
 70
     1
102
RTVSPost2010Prop39
140
1.0
102
RTVSPost2010PropOp39
 70
     1
102
RTVSPost2010Prop40
 90
        0
102
RTVSPost2010PropOp40
 70
     1
102
RTVSPost2010Prop41ColorIndex
 90
       18
102
RTVSPost2010Prop41ColorRGB
 90
        0
102
RTVSPost2010PropOp41
 70
     1
102
RTVSPost2010Prop42
 90
       50
102
RTVSPost2010PropOp42
 70
     1
102
RTVSPost2010Prop43
 90
        3
102
RTVSPost2010PropOp43
 70
     1
102
RTVSPost2010Prop44ColorIndex
 90
        5
102
RTVSPost2010Prop44ColorRGB
 90
      255
102
RTVSPost2010PropOp44
 70
     1
102
RTVSPost2010Prop45
280
     0
102
RTVSPost2010PropOp45
 70
     1
102
RTVSPost2010Prop46
 90
       50
102
RTVSPost2010PropOp46
 70
     1
102
RTVSPost2010Prop47
 90
       50
102
RTVSPost2010PropOp47
 70
     1
102
RTVSPost2010Prop48
 90
       50
102
RTVSPost2010PropOp48
 70
     1
102
RTVSPost2010Prop49
280
     0
102
RTVSPost2010PropOp49
 70
     1
102
RTVSPost2010Prop50
 90
       50
102
RTVSPost2010PropOp50
 70
     1
102
RTVSPost2010Prop51ColorIndex
 90
      256
102
RTVSPost2010Prop51ColorRGB
 90
-16777216
102
RTVSPost2010PropOp51
 70
     0
102
RTVSPost2010Prop52
140
1.0
102
RTVSPost2010PropOp52
 70
     0
102
RTVSPost2010Prop53
 90
        2
102
RTVSPost2010PropOp53
 70
     1
102
RTVSPost2010Prop54
  1
strokes_ogs.tif
102
RTVSPost2010PropOp54
 70
     1
102
RTVSPost2010Prop55
280
     0
102
RTVSPost2010PropOp55
 70
     1
102
RTVSPost2010Prop56
140
1.0
102
RTVSPost2010PropOp56
 70
     1
102
RTVSPost2010Prop57
140
1.0
102
RTVSPost2010PropOp57
 70
     1
  0
XRECORD
  5
792
102
{ACAD_REACTORS
330
791
102
}
330
791
100
AcDbXrecord
280
     1
102
RTVSPost2010Prop28
280
     0
102
RTVSPost2010PropOp28
 70
     1
102
RTVSPost2010Prop29
280
     1
102
RTVSPost2010PropOp29
 70
     1
102
RTVSPost2010Prop30
280
     1
102
RTVSPost2010PropOp30
 70
     1
102
RTVSPost2010Prop31
280
     0
102
RTVSPost2010PropOp31
 70
     1
102
RTVSPost2010Prop32
280
     0
102
RTVSPost2010PropOp32
 70
     1
102
RTVSPost2010Prop33
280
     0
102
RTVSPost2010PropOp33
 70
     1
102
RTVSPost2010Prop34
280
     0
102
RTVSPost2010PropOp34
 70
     1
102
RTVSPost2010Prop35
280
     0
102
RTVSPost2010PropOp35
 70
     1
102
RTVSPost2010Prop36
280
     0
102
RTVSPost2010PropOp36
 70
     1
102
RTVSPost2010Prop37
 90
       50
102
RTVSPost2010PropOp37
 70
     1
102
RTVSPost2010Prop38
140
0.0
102
RTVSPost2010PropOp38
 70
     1
102
RTVSPost2010Prop39
140
1.0
102
RTVSPost2010PropOp39
 70
     1
102
RTVSPost2010Prop40
 90
        0
102
RTVSPost2010PropOp40
 70
     1
102
RTVSPost2010Prop41ColorIndex
 90
       18
102
RTVSPost2010Prop41ColorRGB
 90
        0
102
RTVSPost2010PropOp41
 70
     1
102
RTVSPost2010Prop42
 90
       50
102
RTVSPost2010PropOp42
 70
     1
102
RTVSPost2010Prop43
 90
        3
102
RTVSPost2010PropOp43
 70
     1
102
RTVSPost2010Prop44ColorIndex
 90
        5
102
RTVSPost2010Prop44ColorRGB
 90
      255
102
RTVSPost2010PropOp44
 70
     1
102
RTVSPost2010Prop45
280
     0
102
RTVSPost2010PropOp45
 70
     1
102
RTVSPost2010Prop46
 90
       50
102
RTVSPost2010PropOp46
 70
     1
102
RTVSPost2010Prop47
 90
       50
102
RTVSPost2010PropOp47
 70
     1
102
RTVSPost2010Prop48
 90
       50
102
RTVSPost2010PropOp48
 70
     1
102
RTVSPost2010Prop49
280
     0
102
RTVSPost2010PropOp49
 70
     1
102
RTVSPost2010Prop50
 90
       50
102
RTVSPost2010PropOp50
 70
     1
102
RTVSPost2010Prop51ColorIndex
 90
      256
102
RTVSPost2010Prop51ColorRGB
 90
-16777216
102
RTVSPost2010PropOp51
 70
     0
102
RTVSPost2010Prop52
140
1.0
102
RTVSPost2010PropOp52
 70
     0
102
RTVSPost2010Prop53
 90
        2
102
RTVSPost2010PropOp53
 70
     1
102
RTVSPost2010Prop54
  1
strokes_ogs.tif
102
RTVSPost2010PropOp54
 70
     1
102
RTVSPost2010Prop55
280
     0
102
RTVSPost2010PropOp55
 70
     1
102
RTVSPost2010Prop56
140
1.0
102
RTVSPost2010PropOp56
 70
     1
102
RTVSPost2010Prop57
140
1.0
102
RTVSPost2010PropOp57
 70
     1
  0
XRECORD
  5
79A
102
{ACAD_REACTORS
330
799
102
}
330
799
100
AcDbXrecord
280
     1
102
RTVSPost2010Prop28
280
     0
102
RTVSPost2010PropOp28
 70
     1
102
RTVSPost2010Prop29
280
     1
102
RTVSPost2010PropOp29
 70
     1
102
RTVSPost2010Prop30
280
     1
102
RTVSPost2010PropOp30
 70
     1
102
RTVSPost2010Prop31
280
     0
102
RTVSPost2010PropOp31
 70
     1
102
RTVSPost2010Prop32
280
     0
102
RTVSPost2010PropOp32
 70
     1
102
RTVSPost2010Prop33
280
     0
102
RTVSPost2010PropOp33
 70
     1
102
RTVSPost2010Prop34
280
     0
102
RTVSPost2010PropOp34
 70
     1
102
RTVSPost2010Prop35
280
     0
102
RTVSPost2010PropOp35
 70
     1
102
RTVSPost2010Prop36
280
     0
102
RTVSPost2010PropOp36
 70
     1
102
RTVSPost2010Prop37
 90
       50
102
RTVSPost2010PropOp37
 70
     1
102
RTVSPost2010Prop38
140
0.0
102
RTVSPost2010PropOp38
 70
     1
102
RTVSPost2010Prop39
140
1.0
102
RTVSPost2010PropOp39
 70
     1
102
RTVSPost2010Prop40
 90
        0
102
RTVSPost2010PropOp40
 70
     1
102
RTVSPost2010Prop41ColorIndex
 90
       18
102
RTVSPost2010Prop41ColorRGB
 90
        0
102
RTVSPost2010PropOp41
 70
     1
102
RTVSPost2010Prop42
 90
       50
102
RTVSPost2010PropOp42
 70
     1
102
RTVSPost2010Prop43
 90
        3
102
RTVSPost2010PropOp43
 70
     1
102
RTVSPost2010Prop44ColorIndex
 90
        5
102
RTVSPost2010Prop44ColorRGB
 90
      255
102
RTVSPost2010PropOp44
 70
     1
102
RTVSPost2010Prop45
280
     0
102
RTVSPost2010PropOp45
 70
     1
102
RTVSPost2010Prop46
 90
       50
102
RTVSPost2010PropOp46
 70
     1
102
RTVSPost2010Prop47
 90
       50
102
RTVSPost2010PropOp47
 70
     1
102
RTVSPost2010Prop48
 90
       50
102
RTVSPost2010PropOp48
 70
     1
102
RTVSPost2010Prop49
280
     0
102
RTVSPost2010PropOp49
 70
     1
102
RTVSPost2010Prop50
 90
       50
102
RTVSPost2010PropOp50
 70
     1
102
RTVSPost2010Prop51ColorIndex
 90
      256
102
RTVSPost2010Prop51ColorRGB
 90
-16777216
102
RTVSPost2010PropOp51
 70
     0
102
RTVSPost2010Prop52
140
1.0
102
RTVSPost2010PropOp52
 70
     0
102
RTVSPost2010Prop53
 90
        2
102
RTVSPost2010PropOp53
 70
     1
102
RTVSPost2010Prop54
  1
strokes_ogs.tif
102
RTVSPost2010PropOp54
 70
     1
102
RTVSPost2010Prop55
280
     0
102
RTVSPost2010PropOp55
 70
     1
102
RTVSPost2010Prop56
140
1.0
102
RTVSPost2010PropOp56
 70
     1
102
RTVSPost2010Prop57
140
1.0
102
RTVSPost2010PropOp57
 70
     1
  0
XRECORD
  5
7B6
102
{ACAD_REACTORS
330
7B5
102
}
330
7B5
100
AcDbXrecord
280
     1
102
RTVSPost2010Prop28
280
     0
102
RTVSPost2010PropOp28
 70
     0
102
RTVSPost2010Prop29
280
     1
102
RTVSPost2010PropOp29
 70
     0
102
RTVSPost2010Prop30
280
     1
102
RTVSPost2010PropOp30
 70
     0
102
RTVSPost2010Prop31
280
     0
102
RTVSPost2010PropOp31
 70
     0
102
RTVSPost2010Prop32
280
     0
102
RTVSPost2010PropOp32
 70
     0
102
RTVSPost2010Prop33
280
     0
102
RTVSPost2010PropOp33
 70
     0
102
RTVSPost2010Prop34
280
     0
102
RTVSPost2010PropOp34
 70
     0
102
RTVSPost2010Prop35
280
     0
102
RTVSPost2010PropOp35
 70
     0
102
RTVSPost2010Prop36
280
     0
102
RTVSPost2010PropOp36
 70
     0
102
RTVSPost2010Prop37
 90
       50
102
RTVSPost2010PropOp37
 70
     0
102
RTVSPost2010Prop38
140
0.0
102
RTVSPost2010PropOp38
 70
     0
102
RTVSPost2010Prop39
140
1.0
102
RTVSPost2010PropOp39
 70
     0
102
RTVSPost2010Prop40
 90
        0
102
RTVSPost2010PropOp40
 70
     0
102
RTVSPost2010Prop41ColorIndex
 90
       18
102
RTVSPost2010Prop41ColorRGB
 90
        0
102
RTVSPost2010PropOp41
 70
     0
102
RTVSPost2010Prop42
 90
       50
102
RTVSPost2010PropOp42
 70
     0
102
RTVSPost2010Prop43
 90
        3
102
RTVSPost2010PropOp43
 70
     0
102
RTVSPost2010Prop44ColorIndex
 90
        5
102
RTVSPost2010Prop44ColorRGB
 90
      255
102
RTVSPost2010PropOp44
 70
     0
102
RTVSPost2010Prop45
280
     0
102
RTVSPost2010PropOp45
 70
     0
102
RTVSPost2010Prop46
 90
       50
102
RTVSPost2010PropOp46
 70
     0
102
RTVSPost2010Prop47
 90
       50
102
RTVSPost2010PropOp47
 70
     0
102
RTVSPost2010Prop48
 90
       50
102
RTVSPost2010PropOp48
 70
     0
102
RTVSPost2010Prop49
280
     0
102
RTVSPost2010PropOp49
 70
     0
102
RTVSPost2010Prop50
 90
       50
102
RTVSPost2010PropOp50
 70
     0
102
RTVSPost2010Prop51ColorIndex
 90
      256
102
RTVSPost2010Prop51ColorRGB
 90
-16777216
102
RTVSPost2010PropOp51
 70
     0
102
RTVSPost2010Prop52
140
1.0
102
RTVSPost2010PropOp52
 70
     0
102
RTVSPost2010Prop53
 90
        2
102
RTVSPost2010PropOp53
 70
     0
102
RTVSPost2010Prop54
  1
strokes_ogs.tif
102
RTVSPost2010PropOp54
 70
     0
102
RTVSPost2010Prop55
280
     0
102
RTVSPost2010PropOp55
 70
     0
102
RTVSPost2010Prop56
140
1.0
102
RTVSPost2010PropOp56
 70
     0
102
RTVSPost2010Prop57
140
1.0
102
RTVSPost2010PropOp57
 70
     0
  0
XRECORD
  5
7A6
102
{ACAD_REACTORS
330
7A5
102
}
330
7A5
100
AcDbXrecord
280
     1
102
RTVSPost2010Prop28
280
     0
102
RTVSPost2010PropOp28
 70
     1
102
RTVSPost2010Prop29
280
     1
102
RTVSPost2010PropOp29
 70
     1
102
RTVSPost2010Prop30
280
     1
102
RTVSPost2010PropOp30
 70
     1
102
RTVSPost2010Prop31
280
     0
102
RTVSPost2010PropOp31
 70
     1
102
RTVSPost2010Prop32
280
     0
102
RTVSPost2010PropOp32
 70
     1
102
RTVSPost2010Prop33
280
     0
102
RTVSPost2010PropOp33
 70
     1
102
RTVSPost2010Prop34
280
     0
102
RTVSPost2010PropOp34
 70
     1
102
RTVSPost2010Prop35
280
     0
102
RTVSPost2010PropOp35
 70
     1
102
RTVSPost2010Prop36
280
     0
102
RTVSPost2010PropOp36
 70
     1
102
RTVSPost2010Prop37
 90
       50
102
RTVSPost2010PropOp37
 70
     1
102
RTVSPost2010Prop38
140
0.0
102
RTVSPost2010PropOp38
 70
     1
102
RTVSPost2010Prop39
140
1.0
102
RTVSPost2010PropOp39
 70
     1
102
RTVSPost2010Prop40
 90
        0
102
RTVSPost2010PropOp40
 70
     1
102
RTVSPost2010Prop41ColorIndex
 90
       18
102
RTVSPost2010Prop41ColorRGB
 90
        0
102
RTVSPost2010PropOp41
 70
     1
102
RTVSPost2010Prop42
 90
       50
102
RTVSPost2010PropOp42
 70
     1
102
RTVSPost2010Prop43
 90
        3
102
RTVSPost2010PropOp43
 70
     1
102
RTVSPost2010Prop44ColorIndex
 90
        5
102
RTVSPost2010Prop44ColorRGB
 90
      255
102
RTVSPost2010PropOp44
 70
     1
102
RTVSPost2010Prop45
280
     0
102
RTVSPost2010PropOp45
 70
     1
102
RTVSPost2010Prop46
 90
       50
102
RTVSPost2010PropOp46
 70
     1
102
RTVSPost2010Prop47
 90
       50
102
RTVSPost2010PropOp47
 70
     1
102
RTVSPost2010Prop48
 90
       50
102
RTVSPost2010PropOp48
 70
     1
102
RTVSPost2010Prop49
280
     0
102
RTVSPost2010PropOp49
 70
     1
102
RTVSPost2010Prop50
 90
       50
102
RTVSPost2010PropOp50
 70
     1
102
RTVSPost2010Prop51ColorIndex
 90
      256
102
RTVSPost2010Prop51ColorRGB
 90
-16777216
102
RTVSPost2010PropOp51
 70
     0
102
RTVSPost2010Prop52
140
1.0
102
RTVSPost2010PropOp52
 70
     0
102
RTVSPost2010Prop53
 90
        2
102
RTVSPost2010PropOp53
 70
     1
102
RTVSPost2010Prop54
  1
strokes_ogs.tif
102
RTVSPost2010PropOp54
 70
     1
102
RTVSPost2010Prop55
280
     0
102
RTVSPost2010PropOp55
 70
     1
102
RTVSPost2010Prop56
140
1.0
102
RTVSPost2010PropOp56
 70
     1
102
RTVSPost2010Prop57
140
1.0
102
RTVSPost2010PropOp57
 70
     1
  0
XRECORD
  5
7B8
102
{ACAD_REACTORS
330
7B7
102
}
330
7B7
100
AcDbXrecord
280
     1
102
RTVSPost2010Prop28
280
     0
102
RTVSPost2010PropOp28
 70
     0
102
RTVSPost2010Prop29
280
     1
102
RTVSPost2010PropOp29
 70
     0
102
RTVSPost2010Prop30
280
     1
102
RTVSPost2010PropOp30
 70
     0
102
RTVSPost2010Prop31
280
     0
102
RTVSPost2010PropOp31
 70
     0
102
RTVSPost2010Prop32
280
     0
102
RTVSPost2010PropOp32
 70
     0
102
RTVSPost2010Prop33
280
     0
102
RTVSPost2010PropOp33
 70
     0
102
RTVSPost2010Prop34
280
     0
102
RTVSPost2010PropOp34
 70
     0
102
RTVSPost2010Prop35
280
     0
102
RTVSPost2010PropOp35
 70
     0
102
RTVSPost2010Prop36
280
     0
102
RTVSPost2010PropOp36
 70
     0
102
RTVSPost2010Prop37
 90
       50
102
RTVSPost2010PropOp37
 70
     0
102
RTVSPost2010Prop38
140
0.0
102
RTVSPost2010PropOp38
 70
     0
102
RTVSPost2010Prop39
140
1.0
102
RTVSPost2010PropOp39
 70
     0
102
RTVSPost2010Prop40
 90
        0
102
RTVSPost2010PropOp40
 70
     0
102
RTVSPost2010Prop41ColorIndex
 90
       18
102
RTVSPost2010Prop41ColorRGB
 90
        0
102
RTVSPost2010PropOp41
 70
     0
102
RTVSPost2010Prop42
 90
       50
102
RTVSPost2010PropOp42
 70
     0
102
RTVSPost2010Prop43
 90
        3
102
RTVSPost2010PropOp43
 70
     0
102
RTVSPost2010Prop44ColorIndex
 90
        5
102
RTVSPost2010Prop44ColorRGB
 90
      255
102
RTVSPost2010PropOp44
 70
     0
102
RTVSPost2010Prop45
280
     0
102
RTVSPost2010PropOp45
 70
     0
102
RTVSPost2010Prop46
 90
       50
102
RTVSPost2010PropOp46
 70
     0
102
RTVSPost2010Prop47
 90
       50
102
RTVSPost2010PropOp47
 70
     0
102
RTVSPost2010Prop48
 90
       50
102
RTVSPost2010PropOp48
 70
     0
102
RTVSPost2010Prop49
280
     0
102
RTVSPost2010PropOp49
 70
     0
102
RTVSPost2010Prop50
 90
       50
102
RTVSPost2010PropOp50
 70
     0
102
RTVSPost2010Prop51ColorIndex
 90
      256
102
RTVSPost2010Prop51ColorRGB
 90
-16777216
102
RTVSPost2010PropOp51
 70
     0
102
RTVSPost2010Prop52
140
1.0
102
RTVSPost2010PropOp52
 70
     0
102
RTVSPost2010Prop53
 90
        2
102
RTVSPost2010PropOp53
 70
     0
102
RTVSPost2010Prop54
  1
strokes_ogs.tif
102
RTVSPost2010PropOp54
 70
     0
102
RTVSPost2010Prop55
280
     0
102
RTVSPost2010PropOp55
 70
     0
102
RTVSPost2010Prop56
140
1.0
102
RTVSPost2010PropOp56
 70
     0
102
RTVSPost2010Prop57
140
1.0
102
RTVSPost2010PropOp57
 70
     0
  0
XRECORD
  5
79E
102
{ACAD_REACTORS
330
79D
102
}
330
79D
100
AcDbXrecord
280
     1
102
RTVSPost2010Prop28
280
     0
102
RTVSPost2010PropOp28
 70
     1
102
RTVSPost2010Prop29
280
     1
102
RTVSPost2010PropOp29
 70
     1
102
RTVSPost2010Prop30
280
     1
102
RTVSPost2010PropOp30
 70
     1
102
RTVSPost2010Prop31
280
     0
102
RTVSPost2010PropOp31
 70
     1
102
RTVSPost2010Prop32
280
     0
102
RTVSPost2010PropOp32
 70
     1
102
RTVSPost2010Prop33
280
     0
102
RTVSPost2010PropOp33
 70
     1
102
RTVSPost2010Prop34
280
     0
102
RTVSPost2010PropOp34
 70
     1
102
RTVSPost2010Prop35
280
     0
102
RTVSPost2010PropOp35
 70
     1
102
RTVSPost2010Prop36
280
     0
102
RTVSPost2010PropOp36
 70
     1
102
RTVSPost2010Prop37
 90
       50
102
RTVSPost2010PropOp37
 70
     1
102
RTVSPost2010Prop38
140
0.0
102
RTVSPost2010PropOp38
 70
     1
102
RTVSPost2010Prop39
140
1.0
102
RTVSPost2010PropOp39
 70
     1
102
RTVSPost2010Prop40
 90
        0
102
RTVSPost2010PropOp40
 70
     1
102
RTVSPost2010Prop41ColorIndex
 90
       18
102
RTVSPost2010Prop41ColorRGB
 90
        0
102
RTVSPost2010PropOp41
 70
     1
102
RTVSPost2010Prop42
 90
       50
102
RTVSPost2010PropOp42
 70
     1
102
RTVSPost2010Prop43
 90
        3
102
RTVSPost2010PropOp43
 70
     1
102
RTVSPost2010Prop44ColorIndex
 90
        5
102
RTVSPost2010Prop44ColorRGB
 90
      255
102
RTVSPost2010PropOp44
 70
     1
102
RTVSPost2010Prop45
280
     0
102
RTVSPost2010PropOp45
 70
     1
102
RTVSPost2010Prop46
 90
       50
102
RTVSPost2010PropOp46
 70
     1
102
RTVSPost2010Prop47
 90
       50
102
RTVSPost2010PropOp47
 70
     1
102
RTVSPost2010Prop48
 90
       50
102
RTVSPost2010PropOp48
 70
     1
102
RTVSPost2010Prop49
280
     0
102
RTVSPost2010PropOp49
 70
     1
102
RTVSPost2010Prop50
 90
       50
102
RTVSPost2010PropOp50
 70
     1
102
RTVSPost2010Prop51ColorIndex
 90
      256
102
RTVSPost2010Prop51ColorRGB
 90
-16777216
102
RTVSPost2010PropOp51
 70
     0
102
RTVSPost2010Prop52
140
1.0
102
RTVSPost2010PropOp52
 70
     0
102
RTVSPost2010Prop53
 90
        2
102
RTVSPost2010PropOp53
 70
     1
102
RTVSPost2010Prop54
  1
strokes_ogs.tif
102
RTVSPost2010PropOp54
 70
     1
102
RTVSPost2010Prop55
280
     0
102
RTVSPost2010PropOp55
 70
     1
102
RTVSPost2010Prop56
140
1.0
102
RTVSPost2010PropOp56
 70
     1
102
RTVSPost2010Prop57
140
1.0
102
RTVSPost2010PropOp57
 70
     1
  0
XRECORD
  5
7B4
102
{ACAD_REACTORS
330
7B3
102
}
330
7B3
100
AcDbXrecord
280
     1
102
RTVSPost2010Prop28
280
     0
102
RTVSPost2010PropOp28
 70
     1
102
RTVSPost2010Prop29
280
     1
102
RTVSPost2010PropOp29
 70
     1
102
RTVSPost2010Prop30
280
     1
102
RTVSPost2010PropOp30
 70
     1
102
RTVSPost2010Prop31
280
     0
102
RTVSPost2010PropOp31
 70
     1
102
RTVSPost2010Prop32
280
     0
102
RTVSPost2010PropOp32
 70
     1
102
RTVSPost2010Prop33
280
     0
102
RTVSPost2010PropOp33
 70
     1
102
RTVSPost2010Prop34
280
     0
102
RTVSPost2010PropOp34
 70
     1
102
RTVSPost2010Prop35
280
     0
102
RTVSPost2010PropOp35
 70
     1
102
RTVSPost2010Prop36
280
     0
102
RTVSPost2010PropOp36
 70
     1
102
RTVSPost2010Prop37
 90
       50
102
RTVSPost2010PropOp37
 70
     1
102
RTVSPost2010Prop38
140
0.0
102
RTVSPost2010PropOp38
 70
     1
102
RTVSPost2010Prop39
140
1.0
102
RTVSPost2010PropOp39
 70
     1
102
RTVSPost2010Prop40
 90
        0
102
RTVSPost2010PropOp40
 70
     1
102
RTVSPost2010Prop41ColorIndex
 90
       18
102
RTVSPost2010Prop41ColorRGB
 90
        0
102
RTVSPost2010PropOp41
 70
     1
102
RTVSPost2010Prop42
 90
       50
102
RTVSPost2010PropOp42
 70
     1
102
RTVSPost2010Prop43
 90
        3
102
RTVSPost2010PropOp43
 70
     1
102
RTVSPost2010Prop44ColorIndex
 90
        5
102
RTVSPost2010Prop44ColorRGB
 90
      255
102
RTVSPost2010PropOp44
 70
     1
102
RTVSPost2010Prop45
280
     0
102
RTVSPost2010PropOp45
 70
     1
102
RTVSPost2010Prop46
 90
       50
102
RTVSPost2010PropOp46
 70
     1
102
RTVSPost2010Prop47
 90
       50
102
RTVSPost2010PropOp47
 70
     1
102
RTVSPost2010Prop48
 90
       50
102
RTVSPost2010PropOp48
 70
     1
102
RTVSPost2010Prop49
280
     0
102
RTVSPost2010PropOp49
 70
     1
102
RTVSPost2010Prop50
 90
       50
102
RTVSPost2010PropOp50
 70
     1
102
RTVSPost2010Prop51ColorIndex
 90
      256
102
RTVSPost2010Prop51ColorRGB
 90
-16777216
102
RTVSPost2010PropOp51
 70
     0
102
RTVSPost2010Prop52
140
1.0
102
RTVSPost2010PropOp52
 70
     0
102
RTVSPost2010Prop53
 90
        2
102
RTVSPost2010PropOp53
 70
     1
102
RTVSPost2010Prop54
  1
strokes_ogs.tif
102
RTVSPost2010PropOp54
 70
     1
102
RTVSPost2010Prop55
280
     0
102
RTVSPost2010PropOp55
 70
     1
102
RTVSPost2010Prop56
140
1.0
102
RTVSPost2010PropOp56
 70
     1
102
RTVSPost2010Prop57
140
1.0
102
RTVSPost2010PropOp57
 70
     1
  0
XRECORD
  5
7B2
102
{ACAD_REACTORS
330
7B1
102
}
330
7B1
100
AcDbXrecord
280
     1
102
RTVSPost2010Prop28
280
     0
102
RTVSPost2010PropOp28
 70
     1
102
RTVSPost2010Prop29
280
     1
102
RTVSPost2010PropOp29
 70
     1
102
RTVSPost2010Prop30
280
     1
102
RTVSPost2010PropOp30
 70
     1
102
RTVSPost2010Prop31
280
     0
102
RTVSPost2010PropOp31
 70
     1
102
RTVSPost2010Prop32
280
     0
102
RTVSPost2010PropOp32
 70
     1
102
RTVSPost2010Prop33
280
     0
102
RTVSPost2010PropOp33
 70
     1
102
RTVSPost2010Prop34
280
     0
102
RTVSPost2010PropOp34
 70
     1
102
RTVSPost2010Prop35
280
     0
102
RTVSPost2010PropOp35
 70
     1
102
RTVSPost2010Prop36
280
     0
102
RTVSPost2010PropOp36
 70
     1
102
RTVSPost2010Prop37
 90
       50
102
RTVSPost2010PropOp37
 70
     1
102
RTVSPost2010Prop38
140
0.0
102
RTVSPost2010PropOp38
 70
     1
102
RTVSPost2010Prop39
140
1.0
102
RTVSPost2010PropOp39
 70
     1
102
RTVSPost2010Prop40
 90
        0
102
RTVSPost2010PropOp40
 70
     1
102
RTVSPost2010Prop41ColorIndex
 90
       18
102
RTVSPost2010Prop41ColorRGB
 90
        0
102
RTVSPost2010PropOp41
 70
     1
102
RTVSPost2010Prop42
 90
       50
102
RTVSPost2010PropOp42
 70
     1
102
RTVSPost2010Prop43
 90
        3
102
RTVSPost2010PropOp43
 70
     1
102
RTVSPost2010Prop44ColorIndex
 90
        5
102
RTVSPost2010Prop44ColorRGB
 90
      255
102
RTVSPost2010PropOp44
 70
     1
102
RTVSPost2010Prop45
280
     0
102
RTVSPost2010PropOp45
 70
     1
102
RTVSPost2010Prop46
 90
       50
102
RTVSPost2010PropOp46
 70
     1
102
RTVSPost2010Prop47
 90
       50
102
RTVSPost2010PropOp47
 70
     1
102
RTVSPost2010Prop48
 90
       50
102
RTVSPost2010PropOp48
 70
     1
102
RTVSPost2010Prop49
280
     0
102
RTVSPost2010PropOp49
 70
     1
102
RTVSPost2010Prop50
 90
       50
102
RTVSPost2010PropOp50
 70
     1
102
RTVSPost2010Prop51ColorIndex
 90
      256
102
RTVSPost2010Prop51ColorRGB
 90
-16777216
102
RTVSPost2010PropOp51
 70
     0
102
RTVSPost2010Prop52
140
1.0
102
RTVSPost2010PropOp52
 70
     0
102
RTVSPost2010Prop53
 90
        2
102
RTVSPost2010PropOp53
 70
     1
102
RTVSPost2010Prop54
  1
strokes_ogs.tif
102
RTVSPost2010PropOp54
 70
     1
102
RTVSPost2010Prop55
280
     0
102
RTVSPost2010PropOp55
 70
     1
102
RTVSPost2010Prop56
140
1.0
102
RTVSPost2010PropOp56
 70
     1
102
RTVSPost2010Prop57
140
1.0
102
RTVSPost2010PropOp57
 70
     1
  0
XRECORD
  5
7AC
102
{ACAD_REACTORS
330
7AB
102
}
330
7AB
100
AcDbXrecord
280
     1
102
RTVSPost2010Prop28
280
     0
102
RTVSPost2010PropOp28
 70
     1
102
RTVSPost2010Prop29
280
     1
102
RTVSPost2010PropOp29
 70
     1
102
RTVSPost2010Prop30
280
     1
102
RTVSPost2010PropOp30
 70
     1
102
RTVSPost2010Prop31
280
     0
102
RTVSPost2010PropOp31
 70
     1
102
RTVSPost2010Prop32
280
     0
102
RTVSPost2010PropOp32
 70
     1
102
RTVSPost2010Prop33
280
     0
102
RTVSPost2010PropOp33
 70
     1
102
RTVSPost2010Prop34
280
     0
102
RTVSPost2010PropOp34
 70
     1
102
RTVSPost2010Prop35
280
     0
102
RTVSPost2010PropOp35
 70
     1
102
RTVSPost2010Prop36
280
     0
102
RTVSPost2010PropOp36
 70
     1
102
RTVSPost2010Prop37
 90
       50
102
RTVSPost2010PropOp37
 70
     1
102
RTVSPost2010Prop38
140
0.0
102
RTVSPost2010PropOp38
 70
     1
102
RTVSPost2010Prop39
140
1.0
102
RTVSPost2010PropOp39
 70
     1
102
RTVSPost2010Prop40
 90
        0
102
RTVSPost2010PropOp40
 70
     1
102
RTVSPost2010Prop41ColorIndex
 90
       18
102
RTVSPost2010Prop41ColorRGB
 90
        0
102
RTVSPost2010PropOp41
 70
     1
102
RTVSPost2010Prop42
 90
       50
102
RTVSPost2010PropOp42
 70
     1
102
RTVSPost2010Prop43
 90
        3
102
RTVSPost2010PropOp43
 70
     1
102
RTVSPost2010Prop44ColorIndex
 90
        5
102
RTVSPost2010Prop44ColorRGB
 90
      255
102
RTVSPost2010PropOp44
 70
     1
102
RTVSPost2010Prop45
280
     0
102
RTVSPost2010PropOp45
 70
     1
102
RTVSPost2010Prop46
 90
       50
102
RTVSPost2010PropOp46
 70
     1
102
RTVSPost2010Prop47
 90
       50
102
RTVSPost2010PropOp47
 70
     1
102
RTVSPost2010Prop48
 90
       50
102
RTVSPost2010PropOp48
 70
     1
102
RTVSPost2010Prop49
280
     0
102
RTVSPost2010PropOp49
 70
     1
102
RTVSPost2010Prop50
 90
       50
102
RTVSPost2010PropOp50
 70
     1
102
RTVSPost2010Prop51ColorIndex
 90
      256
102
RTVSPost2010Prop51ColorRGB
 90
-16777216
102
RTVSPost2010PropOp51
 70
     0
102
RTVSPost2010Prop52
140
1.0
102
RTVSPost2010PropOp52
 70
     0
102
RTVSPost2010Prop53
 90
        2
102
RTVSPost2010PropOp53
 70
     1
102
RTVSPost2010Prop54
  1
strokes_ogs.tif
102
RTVSPost2010PropOp54
 70
     1
102
RTVSPost2010Prop55
280
     0
102
RTVSPost2010PropOp55
 70
     1
102
RTVSPost2010Prop56
140
1.0
102
RTVSPost2010PropOp56
 70
     1
102
RTVSPost2010Prop57
140
1.0
102
RTVSPost2010PropOp57
 70
     1
  0
XRECORD
  5
7AE
102
{ACAD_REACTORS
330
7AD
102
}
330
7AD
100
AcDbXrecord
280
     1
102
RTVSPost2010Prop28
280
     0
102
RTVSPost2010PropOp28
 70
     1
102
RTVSPost2010Prop29
280
     1
102
RTVSPost2010PropOp29
 70
     1
102
RTVSPost2010Prop30
280
     1
102
RTVSPost2010PropOp30
 70
     1
102
RTVSPost2010Prop31
280
     0
102
RTVSPost2010PropOp31
 70
     1
102
RTVSPost2010Prop32
280
     0
102
RTVSPost2010PropOp32
 70
     1
102
RTVSPost2010Prop33
280
     0
102
RTVSPost2010PropOp33
 70
     1
102
RTVSPost2010Prop34
280
     0
102
RTVSPost2010PropOp34
 70
     1
102
RTVSPost2010Prop35
280
     0
102
RTVSPost2010PropOp35
 70
     1
102
RTVSPost2010Prop36
280
     0
102
RTVSPost2010PropOp36
 70
     1
102
RTVSPost2010Prop37
 90
       50
102
RTVSPost2010PropOp37
 70
     1
102
RTVSPost2010Prop38
140
0.0
102
RTVSPost2010PropOp38
 70
     1
102
RTVSPost2010Prop39
140
1.0
102
RTVSPost2010PropOp39
 70
     1
102
RTVSPost2010Prop40
 90
        0
102
RTVSPost2010PropOp40
 70
     1
102
RTVSPost2010Prop41ColorIndex
 90
       18
102
RTVSPost2010Prop41ColorRGB
 90
        0
102
RTVSPost2010PropOp41
 70
     1
102
RTVSPost2010Prop42
 90
       50
102
RTVSPost2010PropOp42
 70
     1
102
RTVSPost2010Prop43
 90
        3
102
RTVSPost2010PropOp43
 70
     1
102
RTVSPost2010Prop44ColorIndex
 90
        5
102
RTVSPost2010Prop44ColorRGB
 90
      255
102
RTVSPost2010PropOp44
 70
     1
102
RTVSPost2010Prop45
280
     0
102
RTVSPost2010PropOp45
 70
     1
102
RTVSPost2010Prop46
 90
       50
102
RTVSPost2010PropOp46
 70
     1
102
RTVSPost2010Prop47
 90
       50
102
RTVSPost2010PropOp47
 70
     1
102
RTVSPost2010Prop48
 90
       50
102
RTVSPost2010PropOp48
 70
     1
102
RTVSPost2010Prop49
280
     0
102
RTVSPost2010PropOp49
 70
     1
102
RTVSPost2010Prop50
 90
       50
102
RTVSPost2010PropOp50
 70
     1
102
RTVSPost2010Prop51ColorIndex
 90
      256
102
RTVSPost2010Prop51ColorRGB
 90
-16777216
102
RTVSPost2010PropOp51
 70
     0
102
RTVSPost2010Prop52
140
1.0
102
RTVSPost2010PropOp52
 70
     0
102
RTVSPost2010Prop53
 90
        2
102
RTVSPost2010PropOp53
 70
     1
102
RTVSPost2010Prop54
  1
strokes_ogs.tif
102
RTVSPost2010PropOp54
 70
     1
102
RTVSPost2010Prop55
280
     0
102
RTVSPost2010PropOp55
 70
     1
102
RTVSPost2010Prop56
140
1.0
102
RTVSPost2010PropOp56
 70
     1
102
RTVSPost2010Prop57
140
1.0
102
RTVSPost2010PropOp57
 70
     1
  0
XRECORD
  5
7A4
102
{ACAD_REACTORS
330
7A3
102
}
330
7A3
100
AcDbXrecord
280
     1
102
RTVSPost2010Prop28
280
     0
102
RTVSPost2010PropOp28
 70
     1
102
RTVSPost2010Prop29
280
     1
102
RTVSPost2010PropOp29
 70
     1
102
RTVSPost2010Prop30
280
     1
102
RTVSPost2010PropOp30
 70
     1
102
RTVSPost2010Prop31
280
     0
102
RTVSPost2010PropOp31
 70
     1
102
RTVSPost2010Prop32
280
     0
102
RTVSPost2010PropOp32
 70
     1
102
RTVSPost2010Prop33
280
     0
102
RTVSPost2010PropOp33
 70
     1
102
RTVSPost2010Prop34
280
     0
102
RTVSPost2010PropOp34
 70
     1
102
RTVSPost2010Prop35
280
     0
102
RTVSPost2010PropOp35
 70
     1
102
RTVSPost2010Prop36
280
     0
102
RTVSPost2010PropOp36
 70
     1
102
RTVSPost2010Prop37
 90
       50
102
RTVSPost2010PropOp37
 70
     1
102
RTVSPost2010Prop38
140
0.0
102
RTVSPost2010PropOp38
 70
     1
102
RTVSPost2010Prop39
140
1.0
102
RTVSPost2010PropOp39
 70
     1
102
RTVSPost2010Prop40
 90
        0
102
RTVSPost2010PropOp40
 70
     1
102
RTVSPost2010Prop41ColorIndex
 90
       18
102
RTVSPost2010Prop41ColorRGB
 90
        0
102
RTVSPost2010PropOp41
 70
     1
102
RTVSPost2010Prop42
 90
       50
102
RTVSPost2010PropOp42
 70
     1
102
RTVSPost2010Prop43
 90
        3
102
RTVSPost2010PropOp43
 70
     1
102
RTVSPost2010Prop44ColorIndex
 90
        5
102
RTVSPost2010Prop44ColorRGB
 90
      255
102
RTVSPost2010PropOp44
 70
     1
102
RTVSPost2010Prop45
280
     0
102
RTVSPost2010PropOp45
 70
     1
102
RTVSPost2010Prop46
 90
       50
102
RTVSPost2010PropOp46
 70
     1
102
RTVSPost2010Prop47
 90
       50
102
RTVSPost2010PropOp47
 70
     1
102
RTVSPost2010Prop48
 90
       50
102
RTVSPost2010PropOp48
 70
     1
102
RTVSPost2010Prop49
280
     0
102
RTVSPost2010PropOp49
 70
     1
102
RTVSPost2010Prop50
 90
       50
102
RTVSPost2010PropOp50
 70
     1
102
RTVSPost2010Prop51ColorIndex
 90
      256
102
RTVSPost2010Prop51ColorRGB
 90
-16777216
102
RTVSPost2010PropOp51
 70
     0
102
RTVSPost2010Prop52
140
1.0
102
RTVSPost2010PropOp52
 70
     0
102
RTVSPost2010Prop53
 90
        2
102
RTVSPost2010PropOp53
 70
     1
102
RTVSPost2010Prop54
  1
strokes_ogs.tif
102
RTVSPost2010PropOp54
 70
     1
102
RTVSPost2010Prop55
280
     0
102
RTVSPost2010PropOp55
 70
     1
102
RTVSPost2010Prop56
140
1.0
102
RTVSPost2010PropOp56
 70
     1
102
RTVSPost2010Prop57
140
1.0
102
RTVSPost2010PropOp57
 70
     1
  0
XRECORD
  5
798
102
{ACAD_REACTORS
330
797
102
}
330
797
100
AcDbXrecord
280
     1
102
RTVSPost2010Prop28
280
     0
102
RTVSPost2010PropOp28
 70
     1
102
RTVSPost2010Prop29
280
     1
102
RTVSPost2010PropOp29
 70
     1
102
RTVSPost2010Prop30
280
     1
102
RTVSPost2010PropOp30
 70
     1
102
RTVSPost2010Prop31
280
     0
102
RTVSPost2010PropOp31
 70
     1
102
RTVSPost2010Prop32
280
     0
102
RTVSPost2010PropOp32
 70
     1
102
RTVSPost2010Prop33
280
     0
102
RTVSPost2010PropOp33
 70
     1
102
RTVSPost2010Prop34
280
     0
102
RTVSPost2010PropOp34
 70
     1
102
RTVSPost2010Prop35
280
     0
102
RTVSPost2010PropOp35
 70
     1
102
RTVSPost2010Prop36
280
     0
102
RTVSPost2010PropOp36
 70
     1
102
RTVSPost2010Prop37
 90
       50
102
RTVSPost2010PropOp37
 70
     1
102
RTVSPost2010Prop38
140
0.0
102
RTVSPost2010PropOp38
 70
     1
102
RTVSPost2010Prop39
140
1.0
102
RTVSPost2010PropOp39
 70
     1
102
RTVSPost2010Prop40
 90
        0
102
RTVSPost2010PropOp40
 70
     1
102
RTVSPost2010Prop41ColorIndex
 90
       18
102
RTVSPost2010Prop41ColorRGB
 90
        0
102
RTVSPost2010PropOp41
 70
     1
102
RTVSPost2010Prop42
 90
       50
102
RTVSPost2010PropOp42
 70
     1
102
RTVSPost2010Prop43
 90
        3
102
RTVSPost2010PropOp43
 70
     1
102
RTVSPost2010Prop44ColorIndex
 90
        5
102
RTVSPost2010Prop44ColorRGB
 90
      255
102
RTVSPost2010PropOp44
 70
     1
102
RTVSPost2010Prop45
280
     0
102
RTVSPost2010PropOp45
 70
     1
102
RTVSPost2010Prop46
 90
       50
102
RTVSPost2010PropOp46
 70
     1
102
RTVSPost2010Prop47
 90
       50
102
RTVSPost2010PropOp47
 70
     1
102
RTVSPost2010Prop48
 90
       50
102
RTVSPost2010PropOp48
 70
     1
102
RTVSPost2010Prop49
280
     0
102
RTVSPost2010PropOp49
 70
     1
102
RTVSPost2010Prop50
 90
       50
102
RTVSPost2010PropOp50
 70
     1
102
RTVSPost2010Prop51ColorIndex
 90
      256
102
RTVSPost2010Prop51ColorRGB
 90
-16777216
102
RTVSPost2010PropOp51
 70
     0
102
RTVSPost2010Prop52
140
1.0
102
RTVSPost2010PropOp52
 70
     0
102
RTVSPost2010Prop53
 90
        2
102
RTVSPost2010PropOp53
 70
     1
102
RTVSPost2010Prop54
  1
strokes_ogs.tif
102
RTVSPost2010PropOp54
 70
     1
102
RTVSPost2010Prop55
280
     0
102
RTVSPost2010PropOp55
 70
     1
102
RTVSPost2010Prop56
140
1.0
102
RTVSPost2010PropOp56
 70
     1
102
RTVSPost2010Prop57
140
1.0
102
RTVSPost2010PropOp57
 70
     1
  0
XRECORD
  5
7B0
102
{ACAD_REACTORS
330
7AF
102
}
330
7AF
100
AcDbXrecord
280
     1
102
RTVSPost2010Prop28
280
     0
102
RTVSPost2010PropOp28
 70
     1
102
RTVSPost2010Prop29
280
     1
102
RTVSPost2010PropOp29
 70
     1
102
RTVSPost2010Prop30
280
     1
102
RTVSPost2010PropOp30
 70
     1
102
RTVSPost2010Prop31
280
     0
102
RTVSPost2010PropOp31
 70
     1
102
RTVSPost2010Prop32
280
     0
102
RTVSPost2010PropOp32
 70
     1
102
RTVSPost2010Prop33
280
     0
102
RTVSPost2010PropOp33
 70
     1
102
RTVSPost2010Prop34
280
     0
102
RTVSPost2010PropOp34
 70
     1
102
RTVSPost2010Prop35
280
     0
102
RTVSPost2010PropOp35
 70
     1
102
RTVSPost2010Prop36
280
     0
102
RTVSPost2010PropOp36
 70
     1
102
RTVSPost2010Prop37
 90
       50
102
RTVSPost2010PropOp37
 70
     1
102
RTVSPost2010Prop38
140
0.0
102
RTVSPost2010PropOp38
 70
     1
102
RTVSPost2010Prop39
140
1.0
102
RTVSPost2010PropOp39
 70
     1
102
RTVSPost2010Prop40
 90
        0
102
RTVSPost2010PropOp40
 70
     1
102
RTVSPost2010Prop41ColorIndex
 90
       18
102
RTVSPost2010Prop41ColorRGB
 90
        0
102
RTVSPost2010PropOp41
 70
     1
102
RTVSPost2010Prop42
 90
       50
102
RTVSPost2010PropOp42
 70
     1
102
RTVSPost2010Prop43
 90
        3
102
RTVSPost2010PropOp43
 70
     1
102
RTVSPost2010Prop44ColorIndex
 90
        5
102
RTVSPost2010Prop44ColorRGB
 90
      255
102
RTVSPost2010PropOp44
 70
     1
102
RTVSPost2010Prop45
280
     0
102
RTVSPost2010PropOp45
 70
     1
102
RTVSPost2010Prop46
 90
       50
102
RTVSPost2010PropOp46
 70
     1
102
RTVSPost2010Prop47
 90
       50
102
RTVSPost2010PropOp47
 70
     1
102
RTVSPost2010Prop48
 90
       50
102
RTVSPost2010PropOp48
 70
     1
102
RTVSPost2010Prop49
280
     0
102
RTVSPost2010PropOp49
 70
     1
102
RTVSPost2010Prop50
 90
       50
102
RTVSPost2010PropOp50
 70
     1
102
RTVSPost2010Prop51ColorIndex
 90
      256
102
RTVSPost2010Prop51ColorRGB
 90
-16777216
102
RTVSPost2010PropOp51
 70
     0
102
RTVSPost2010Prop52
140
1.0
102
RTVSPost2010PropOp52
 70
     0
102
RTVSPost2010Prop53
 90
        2
102
RTVSPost2010PropOp53
 70
     1
102
RTVSPost2010Prop54
  1
strokes_ogs.tif
102
RTVSPost2010PropOp54
 70
     1
102
RTVSPost2010Prop55
280
     0
102
RTVSPost2010PropOp55
 70
     1
102
RTVSPost2010Prop56
140
1.0
102
RTVSPost2010PropOp56
 70
     1
102
RTVSPost2010Prop57
140
1.0
102
RTVSPost2010PropOp57
 70
     1
  0
ENDSEC
  0
EOF
